» » »

No Real Pain Tabs (ver.1)

Artists:  A B C D E F G H I J K L M N O P Q R S T U V W X Y Z # 

No Real Pain Tabs (ver.1)

Priestess
Rating:
5/5 (2 votes)

Tabs too difficult? Try these video lessons and learn fast.
                -------------------------------------------------------------------------------
-------------------------------------------------------------------------------

Tuning: Standard 


| /  slide up
| \  slide down
| h  hammer-on
| p  pull-off
| ~  vibrato
| +  harmonic
| x  Mute note


  Main Riff – X1
E|--------------------------------------------------|
B|--------------------------------------------------|
G|------------------------------------5-3-3-3-3-3---|
D|-5-5-5-5-5-5-5-5-5-5-5-5-5-5-5--5-5-5-3-3-3-3-3---|
A|-5-5-5-5-5-5-5-5-5-5-5-5-5-5-5--5-5-3-1-1-1-1-1---|
E|-3-3-3-3-3-3-3-3-3-3-3-3-3-3-3--3-3---------------|

  Verse – X2
E|--------------------------------------------------|
B|--------------------------------------------------|
G|------------------------------------5-3-3-3-3-3---|
D|-5-5-5-5-5-5-5-5-5-5-5-5-5-5-5--5-5-5-3-3-3-3-3---|
A|-5-5-5-5-5-5-5-5-5-5-5-5-5-5-5--5-5-3-1-1-1-1-1---|
E|-3-3-3-3-3-3-3-3-3-3-3-3-3-3-3--3-3---------------|

  Break – X1
E|---------------------------------------------------------|
B|---------------------------------------------------------|
G|-5-5-5-5-5-5-5-------------------------------------------|
D|-5-5-5-5-5-5-5-------------------------------------------|
A|-3-3-3-3-3-3-3--1-------------1-3--1-------------1-3-----|
E|------------------3-3-1-3-1-3--------3-3-1-3-1-3---------|

  Verse – X2
E|--------------------------------------------------|
B|--------------------------------------------------|
G|------------------------------------5-3-3-3-3-3---|
D|-5-5-5-5-5-5-5-5-5-5-5-5-5-5-5--5-5-5-3-3-3-3-3---|
A|-5-5-5-5-5-5-5-5-5-5-5-5-5-5-5--5-5-3-1-1-1-1-1---|
E|-3-3-3-3-3-3-3-3-3-3-3-3-3-3-3--3-3---------------|

  Break – X1
E|---------------------------------------------------------|
B|---------------------------------------------------------|
G|-5-5-5-5-5-5-5-------------------------------------------|
D|-5-5-5-5-5-5-5-------------------------------------------|
A|-3-3-3-3-3-3-3--1-------------1-3--1-------------1-3-----|
E|------------------3-3-1-3-1-3--------3-3-1-3-1-3---------|

Pre- Chorus – X1
E|-------------------------------|
B|-------------------------------|
G|-3-3-3-3-3-3-3--5-5-5-5-5-5-5--|
D|-3-3-3-3-3-3-3--5-5-5-5-5-5-5--|
A|-1-1-1-1-1-1-1--3-3-3-3-3-3-3--|
E|-------------------------------|
  
Chorus – X3
E|----------------------|
B|----------------------|
G|-----5-5-7-7-7-7-7-7--|
D|-5-5-5-5-7-7-7-7-7-7--|
A|-5-5-5-5-5-5-5-5-5-5--|
E|-3-3------------------|

  After Chorus – X1
E|--------------------|
B|--------------------|
G|-3-5----10b-10-7----|
D|-3-5-5--------------|
A|-1-3-5--------------|
E|-----3--------------|

  Verse – X2
E|--------------------------------------------------|
B|--------------------------------------------------|
G|------------------------------------5-3-3-3-3-3---|
D|-5-5-5-5-5-5-5-5-5-5-5-5-5-5-5--5-5-5-3-3-3-3-3---|
A|-5-5-5-5-5-5-5-5-5-5-5-5-5-5-5--5-5-3-1-1-1-1-1---|
E|-3-3-3-3-3-3-3-3-3-3-3-3-3-3-3--3-3---------------|

Break – X1
E|---------------------------------------------------------|
B|---------------------------------------------------------|
G|-5-5-5-5-5-5-5-------------------------------------------|
D|-5-5-5-5-5-5-5-------------------------------------------|
A|-3-3-3-3-3-3-3--1-------------1-3--1-------------1-3-----|
E|------------------3-3-1-3-1-3--------3-3-1-3-1-3---------|

Pre- Chorus – X1
E|-------------------------------|
B|-------------------------------|
G|-3-3-3-3-3-3-3--5-5-5-5-5-5-5--|
D|-3-3-3-3-3-3-3--5-5-5-5-5-5-5--|
A|-1-1-1-1-1-1-1--3-3-3-3-3-3-3--|
E|-------------------------------|

Chorus – X3
E|----------------------|
B|----------------------|
G|-----5-5-7-7-7-7-7-7--|
D|-5-5-5-5-7-7-7-7-7-7--|
A|-5-5-5-5-5-5-5-5-5-5--|
E|-3-3------------------|

E|------------|
B|------------|
G|-3-5--------|
D|-3-5-5------|
A|-1-3-5------|
E|-----3------|

Solo– X4  I Did Not Figure Out The Solo Sorry
E|---------------------------------------------------------|
B|---------------------------------------------------------|
G|---------------------------------------------------------|
D|---------------------------------------------------------|
A|-1--------------1-3--------------1-3---------------------|
E|---3-3-1-3-1-3-----3-3-1-3-1-3--------3-3-1-3-1-3--------|

After Solo – X1
E|-----------------------|
B|-----------------------|
G|-5x3-5x3-x3-x3-x3-x3---|
D|-5x3-5x3-x3-x3-x3-x3---|
A|-3x1-3x1-x1-x1-x1-x1---|
E|-----------------------|

Chorus – X3
E|----------------------|
B|----------------------|
G|-----5-5-7-7-7-7-7-7--|
D|-5-5-5-5-7-7-7-7-7-7--|
A|-5-5-5-5-5-5-5-5-5-5--|
E|-3-3------------------|

  X1
E|----------|
B|----------|
G|-3-5------|
D|-3-5-5----|
A|-1-3-5----|
E|-----3----|

Chorus – X3
E|----------------------|
B|----------------------|
G|-----5-5-7-7-7-7-7-7--|
D|-5-5-5-5-7-7-7-7-7-7--|
A|-5-5-5-5-5-5-5-5-5-5--|
E|-3-3------------------|

 Ending - X1
E|-----------------|
B|-----------------|
G|-3-5-3-5-3-5-----|
D|-3-5-3-5-3-5-5---|
A|-1-3-1-3-1-3-5---|
E|-------------3---|

======================================================================
            
Tabs too difficult? Try these video lessons and learn fast.


comments powered by Disqus
↑ Back to top | Tablatures and chords are parodies/interpretations of the original songs. You may use it for private study, scholarship, research or language learning purposes only