» » »

We Are The Champions Bass tabs (ver.2)

Artists:  A B C D E F G H I J K L M N O P Q R S T U V W X Y Z # 

We Are The Champions Bass tabs (ver.2)

Queen
Rating:
0/5 (0 votes)

Tabs too difficult? Try these video lessons and learn fast.
                -------------------------------------------------------------------------------
			     We Are The Champions - Queen
-------------------------------------------------------------------------------


Tuning: Standard (E-A-D-G)

6/8 time (six beats per bar), timings marked with "*" and "." (thanks to 
Pete Duffield for this notation).  Triplets (3 notes in place of 2) are 
shown as ".---.".


Verse 1:

    *.. *..   *  .  .  * .  .    *.. *..   *  .  .  *  .  .
G|-17-------+---19-15---------+----------+---12-12-12-12-12-|
D|----------|---------12-8----|-10-------|------------------|
A|----------|--------------10-|----------|------------------|
E|----------+-----------------+----------+------------------|

    *.. *..  *.. *..   *.. *..   *.. * . .   *.. *..   *.. *..
G|---------+---------+---------+---------7-+-8-------+---------|
D|-10------|---------|---------|-------8---|---------|---------|
A|---------|---------|---------|-----------|---------|---------|
E|---------+---------+---------+-----------+---------+---------|

   *.. *..   *.. *..   *.. *..   *.. *..   *.. *..   *.. *..   *.. *..
G|---------+-----8---+---------+---------+---------+---------+---------|
D|-1-------|---------|---------|-----3---|---------|---------|---------|
A|---------|---------|-6---5---|-3-------|-1-------|---------|-----3---|
E|---------+---------+---------+---------+---------+---------+---------|

Chorus 1:

   *.. * . .   *.. * . .   *.. * . .   *.. *..   *.. * . .   *.. * . .
G|-----------+-----------+-----7-----+---------+-----------+-------2-2-|
D|-3-----3-5-|-7-----7-7-|-------7---|---------|---------3-|-----------|
A|-----------|-----------|-5-------5-|-1---3---|-----------|-0---------|
E|-----------+-----------+-----------+---------+-1---------+-----------|

   *.. * . .   *.. *..   *.. *. .   *.. *..   *.. *. .   *.. *..   *..  *..
G|-----------+---------+----------+---------+----------+---------+-----10---|
D|-----------|---------|--------5-|---------|----------|-2---5---|-3--------|
A|-1-----0---|---------|----------|-------0-|-1------4-|---------|----------|
E|---------3-+-2-------+-3--------+-3-------+----------+---------|----------|

   *..     * .  .   *..    * .  .   *..  *    .  .   *  . . *..
G|------8h10-8----+-----8h10-8----+-----10-10-8----+------------|
D|-5-----------10-|-6----------10-|-8-----------10-|---10-------|
A|----------------|---------------|----------------|------------|
E|----------------+---------------+----------------+-8----------|

   *.. *..    *.. *..   *.. *..   *.. *..   *.. *..    *  . . *..
G|---------+-10-------|---------|---------|---------|-17-17-------|
D|---------|----------|---------|---------|---------|-------------|
A|-8-------|----------|---------|---------|---------|-------------|
E|---------|----------|---------|---------|---------|-------------|

Verse 2:

    *.. *..   * .  . *  .  .    *.. *..   *  .-----. *  .  .    *.. *..
G|----------+-----19---15-19-+-17-------+---19-15------15-19-+-17-------|
D|----------|--17------------|----------|---------17---------|----------|
A|-15-------|----------------|----------|--------------------|----------|
E|----------+----------------+----------|--------------------+----------|

   * .  . *  .  .    *.. *..   *.. * . .   *.. * . .   *.. * . .
G|--19------15-19-+-17-------+---------7-+-8-----8-8-+-----8-8-8-|
D|-----17---------|----------|-------8---|-----------|\1---------|
A|----------------|----------|-----------|-----------|-----------|
E|----------------+----------+-----------+-----------+-----------|

   *.. * . .     *.. * . .   *.. *..   *.. *..   *.. *..   *.. *..
G|-----8---8-8-+-------8-8-+---------+---------+---------+---------|
D|-------------|-----------|---------|-----3---|---------|---------|
A|-6-----------|-6---------|-6---5---|-3-------|-1-------|---------|
E|-------------|-----------+---------+---------+---------+---------|

   *.. *..
G|---------|
D|---------|
A|-----3---|
E|---------|

Chorus 2:

   *.. *..   *.. * .---.   *.. *. .   *.. *..   *.. *. .   *.. * . .
G|---------+-2-----2---2-+----------+---------+----------+-------2-2-|
D|-3-------|---------2---|-0----0-0-|---------|-3----3-5-|-----------|
A|---------|-------------|----------|-1---3---|----------|-0---------|
E|---------+-------------+----------+---------+----------+-----------|

   *.. * . .   *.. *..   *..    * .   .     *.. *..   *.. *..   *.. *..
G|-----------+---------+------------------+---------+---------+---------|
D|-----------|---------|------5/8-5-3---5-|---------|---------|-2---5---|
A|-1-----0---|---------|--------------5---|---------|-1-----4-|---------|
E|---------3-+-2-------+-3----------------+-3-------+---------+---------|

   *..  *  .  .   *.. *    . .   *.. *    .  .   *..  .-----. .
G|-----10-10-10-+-------8h10-8-+-------8h10-10-+-----10-10-10-8-|
D|-3------------|-5---8--------|-6-------------|-8--------------|
A|--------------|--------------|---------------|----------------| 
E|--------------+--------------+---------------+----------------|

    *  . . *..
G|-10----------|
D|----10-------|
A|-------------|
E|-------------|

Chorus 3:

   *.. * . .   *.. * . .   *.. *..   *.. *..   *.. * . .   *.. *..
G|---------0-+-2-------2-+---------+---------+-----------+---------|
D|-3---------|-----------|-0-------|---------|-----------|---------|
A|-----------|-----------|---------|-1---3---|-----------|-0-------|
E|-----------+-----------+---------+---------+-1-------3-+---------|

   *.. * . .   *.. *..   *.. *..   *.. * . .   *.. * . .   *.. *..
G|-----------+---------+---------+-----------+-----------+---------|
D|-----------|---------|---------|-----------|-----------|-2---5---|
A|-1-----0---|---------|---------|---------0-|-1-------4-|---------|
E|---------3-+-2-------+-3-------+-3---3-----+-----------+---------|

   *.. * . .   *..    *  .  .   *..    * . .   *..    * . .
G|-----5-5-5-+-----8h10-10-10-+-----8h10-8---+-----8h10-8-8-|
D|-3---------|-5--------------|-6------------|-8------------|
A|-----------|----------------|--------------|--------------|
E|-----------+----------------+--------------+--------------|

      *  . . *..
G|-8h10----------|
D|------10-------|
A|---------------|
E|---------------|
            
Tabs too difficult? Try these video lessons and learn fast.




comments powered by Disqus
↑ Back to top | Tablatures and chords are parodies/interpretations of the original songs. You may use it for private study, scholarship, research or language learning purposes only