» » »

Cold Tabs (ver.1)

Artists:  A B C D E F G H I J K L M N O P Q R S T U V W X Y Z # 

Cold Tabs (ver.1)

Queen Of The Damned
Rating:
0/5 (0 votes)
Tabs too difficult? Try these video lessons and learn fast.
                Queen of the ***ed Soundtrack
Track 10 - Cold
Artist - Static-X

intro: (repeat 8 times)
|-----------------------------------------------------|
|-----------------------------------------------------|
|-----------------------------------------------------|
|-------5--55--5--55--55------------------------------|
|-------5--55--5--55--55------------------------------|
|-------5--55--5--55--55------------------------------|

Verse: (repeat 4 times)
|-----------------------------------------------------|
|-----------------------------------------------------|
|-----------------------------------------------------|
|-------5--55--5--55--55------------------------------|
|-------5--55--5--55--55------------------------------|
|-------5--55--5--55--55------------------------------|

Chorus (repeat 2 times)
|--5------7-6--6----5-----12-11----------------------------|
|--5------7-6--6----5--------------------------------------|
|--5------7-6--6----5--------------------------------------|
|----------------------------------------------------------|
|----------------------------------------------------------|
|----------------------------------------------------------|

Verse: (repeat 8 times)
|-----------------------------------------------------|
|-----------------------------------------------------|
|-----------------------------------------------------|
|-------5--55--5--55--55------------------------------|
|-------5--55--5--55--55------------------------------|
|-------5--55--5--55--55------------------------------|

Chorus (repeat 2 times)
|--5------7-6--6----5-----12-11----------------------------|
|--5------7-6--6----5--------------------------------------|
|--5------7-6--6----5--------------------------------------|
|----------------------------------------------------------|
|----------------------------------------------------------|
|----------------------------------------------------------|

Chorus (repeat 2 times)
|--5------7-6--6----5-----12-11----------------------------|
|--5------7-6--6----5--------------------------------------|
|--5------7-6--6----5--------------------------------------|
|----------------------------------------------------------|
|----------------------------------------------------------|
|----------------------------------------------------------|

Verse: (repeat 8 times)
|-----------------------------------------------------|
|-----------------------------------------------------|
|-----------------------------------------------------|
|-------5--55--5--55--55------------------------------|
|-------5--55--5--55--55------------------------------|
|-------5--55--5--55--55------------------------------|
            
Tabs too difficult? Try these video lessons and learn fast.


comments powered by Disqus
↑ Back to top | Tablatures and chords are parodies/interpretations of the original songs. You may use it for private study, scholarship, research or language learning purposes only