>
 >
Oceaan 3

Oceaan 3 Guitar Tabs

Racoon - Oceaan 3 chords, tabs, tablatures, lyrics

Guitar lessons | Add/correct | Request | Top 50 tabs Artists:  A B C D E F G H I J K L M N O P Q R S T U V W X Y Z 0-9

Oceaan 3 Guitar Tabs – Racoon

CD, Sheet music, Poster

Do you like Oceaan 3? Share with your friends now
Tabs
Racoon - Oceaam
Standard tuning
Capo 2e fret

Tab door Wouter

Mijn eerste tab! Met hulp van de tabs/akkoorden die er al waren
hier volgens mij een vrij accurate versie met alle tokkels.
Veel plezier!
-----------------------------------------------------------------------------

Intro en coupletten:

    G               Asus2          G               Em
e|-----------------------------------------------------------------|
B|-----------------------------------------------------------------|
G|------------------0h2-----0--------------------------------------|
D|------------0----------------2p0-----------0-----0h2-----0-------|
A|------0h2----------------------------0h2--------------------2p0--|
E|--3-------3---3---0---0---0------3-------3---3---0---0---0-------|


Er is verrekte veel te zeggen
en te liegen nog veel meer
Heel veel bagger bloot te leggen
al doet het graven nog zo’n zeer
Ik ben een eikel maar ik leer

Refrein:

    C               Am              Em              D  
e|--------------------------------------0-----------2-----2-----2/3|
B|--------1---------------1-----0----------------------------------|
G|------0-------0-------0-----------------0-----0-------2----------| 4X
D|--------------------------------------------------0-------0------|
A|--3-------3-------0-------0--------------------------------------|
E|----------------------------------0-------0----------------------|


Een oceaan om in te vluchten, nooit jaloers  te hoeven zijn
Liefde om je hart te luchten, Een oceaan, hoe lekker zou het zijn


Was er iets waar ik om wenste
voordat de put droog kwam te staan
Dan was het lang zullen ze leven
familie waar ik veel van hou
en voor wie ik sterven zou


Bridge: 
    F               G               F               G 
e|-----------------------------------------------------------------|
B|--------------1---0-----0---------------------1---------0--------|
G|------0h2---------------------0-------0h2-----------0-------0----|
D|----------------3-----0---------0---------------3-----0-------0--|
A|-----------------------------------------------------------------|
E|--1-------1-------3-------3-------1-------1-------3-------3------|

    F               G               Em               F
e|-----------------------------------------------------------------|
B|--------------1---0-----0---------------------0---1-------1------|
G|------0h2---------------------0---------0-----------0h2----------|
D|----------------3-----0---------0-----2---------0----------------|
A|-----------------------------------------------------------------|
E|--1-------1-------3-------3-------0-------0-------1-----1---1----| 2X

Een oceaan om in te schuilen
nooit alleen meer hoeven zijn
Ik heb gesmeekt niet meer te huilen
alsjeblieft

Het leven jaagt geen angst meer aan
ik heb al zo ver moeten kruipen
Het laatste stuk zal ook wel gaan
tot ik ga staan

Refrein:

Een oceaan om in te vluchten, nooit jaloers  te hoeven zijn        
Liefde om je hart te luchten, een oceaan,  alleen van mij

Een oceaan om te verzuipen, een dag of wat  een held te zijn
Laat die ander nu maar kruipen, een oceaan, vol tranen is van mij
Alleen van mij

Outro:

    G               Asus2          G               Em
e|-----------------------------------------------------------------|
B|-----------------------------------------------------------------|
G|------------------0h2-----0--------------------------------------|
D|------------0---------------2p0----------0-----0h2------0--------|
A|------0h2---------------------------0h2---------------------2p0--|
E|--3-------3---3---0---0---0-----3-------3---3---0---0---0--------|
                                                                     
    G               Asus2          G               Em
e|-----------------------------------------------------------------|
B|-----------------------------------------------------------------|
G|------------------0h2-----0---------------------2p0--------------|
D|------------0---------------2p0-----------0-----------2p0--------|
A|------0h2---------------------------0h2---------------------2p0--|
E|--3-------3---3---0---0---0-----3-------3---3---0---0---0--------|

   G           
e|--3---|
B|--0---|
G|--0---|
D|--0---|
A|--2---|
E|--3---|





Comments


Popular Racoon tabs & chords
Blow Your Tears Chords
Dont Hold Me Down Chords
Freedom Chords
Laugh About It Chords
Brother Tabs
Laugh About It Tabs
Love You More 1 Tabs
Dont Give Up The Fight Ukulele
Good And Ugly Ukulele
No Mercy Ukulele


Song lyrics



↑ Back to top | Tablatures and chords are parodies/interpretations of the original songs. You may use it for private study, scholarship, research or language learning purposes only
© 2014 AZChords.com Contact us | Privacy policy | DMCA | Add/correct tabs | Request tabs | Top 50 tabs