>
 >
Morning Mr Magpie 1

Morning Mr Magpie 1 Guitar Tabs

Radiohead - Morning Mr Magpie 1 chords, tabs, tablatures, lyrics

Guitar lessons | Add/correct | Request | Top 50 tabs Artists:  A B C D E F G H I J K L M N O P Q R S T U V W X Y Z 0-9

Morning Mr Magpie 1 Guitar Tabs – Radiohead

CD, Sheet music, Poster

Do you like Morning Mr Magpie 1? Share with your friends now
Bass TabsTabsTabs v2
Tune your guitar to CGCFCE


_____C7
||----------------------------------------------------|_NOTE:
||----------------------------------------------------|_in this < tact notes
||----------------------------------------------------|_should be played
||----------------------------------------------------|_one half shorter
||--(15)---(15)---(15)--(15)-=-(15)--(15)--(15)--(15)-|_than in the rest
||---12-----12-----12----12--=--12----12----12----12--|_of the song.
___________________sincope


____C6
|------------------------------------------------------||_x4
|------------------------------------------------------||_(repeat 4 times)
|------------------------------------------------------||
|------------------------------------------------------||
|--(14)---(14)---(14)--(14)-=-(14)---(14)---(14)--(14)-||
|---12-----12-----12----12--=--12-----12-----12----12--||
__________________sincope____________________sincope


(pedal)
_______C7________________________(assist guitar hits octaves of low F)_>_F/C  
||---------------------------------------------|--------------------------------------------||
||---------------------------------------------|--------------------------------------------||
||---------------------------------------------|--------------------------------------------||
||---------------------------------------------|--------------------------------------------||
||-----15--15----15--15-=-15--15----15--15-----|-----15--15----15--15--=-14--14--14--14-----||
||-----12--12----12--12-=-12--12----12--12-----|-----12--12----12--12--=-12--12--12--12-----||


~~~


C7___________________________________________C7
||-------------------------------------------|-----------------------------------------||
||-------------------------------------------|-----------------------------------------||
||-------------------------------------------|-----------------------------------------||
||-------------------------------------------|-----------------------------------------||
||-----15--15---15--15-=-15--15---15--15-----|-----15--15---15--15-=-15--x---x--15-----||
||-----12--12---12--12-=-12--12---12--12-----|-----12--12---12--12-=-12--x---x--12-----||


C7__________________________________________C7
||------------------------------------------|-----------------------------------------||
||------------------------------------------|-----------------------------------------||
||------------------------------------------|-----------------------------------------||
||------------------------------------------|-----------------------------------------||
||-----15--15--15--15-=15--15----15--15-----|----15--15----15--15-=15--x--x--15-------||
||-----12--12--12--12-=12--12----12--12-----|----12--12----12--12-=12--x--x--12-------||


~~~


C7__________________________________________C6
||------------------------------------------|--------------------------------------------|
||------------------------------------------|--------------------------------------------|
||------------------------------------------|--------------------------------------------|
||------------------------------------------|--------------------------------------------|
||-----15---15---15--15-=15--15--15--15-----|-----14---14---14--14-=14---14---14--14-----|
||-----12---12---12--12-=12--12--12--12-----|-----12---12---12--12-=12---12---12--12-----|
_______(sincope)__________________________________(sincope)_________(sincope)


C7_________________________________________C6
|------------------------------------------|--------------------------------------------||(x2)
|------------------------------------------|--------------------------------------------||
|------------------------------------------|--------------------------------------------||
|------------------------------------------|--------------------------------------------||
|-----15---15---15--15-=15--15--15--15-----|-----14---14---14--14-=14---14---14--14-----||
|-----12---12---12--12-=12--12--12--12-----|-----12---12---12--12-=12---12---12--12-----||
______(sincope)__________________________________(sincope)_________(sincope)





(Yes, you strum on all 6 strings.)





Comments


Popular Radiohead tabs & chords
High And Dry Bass Tabs
Inside My Head 2 Bass Tabs
Lotus Flower Bass Tabs
Idioteque Chords
2 + 2 = 5 1 Tabs
Bodysnatchers Tabs
Like Spinning Plates Tabs
Punchdrunk Lovesick Singalong Tabs
There There Tabs
Anyone Can Play Guitar Ukulele


Song lyrics



↑ Back to top | Tablatures and chords are parodies/interpretations of the original songs. You may use it for private study, scholarship, research or language learning purposes only
© 2014 AZChords.com Contact us | Privacy policy | DMCA | Add/correct tabs | Request tabs | Top 50 tabs