» » »

Sail To The Moon Tabs (ver.2)

Artists:  A B C D E F G H I J K L M N O P Q R S T U V W X Y Z # 

Sail To The Moon Tabs (ver.2)

Radiohead
Rating:
0/5 (0 votes)

Tabs too difficult? Try these video lessons and learn fast.
                key: A
tunning: Standard (EADGBE)

hey hey,

there are some 'sail to the moon' tabs on here but none of them were completely accurate

so here's one that is:

Intro:

E---4---4---4---4---4---5---4------------|
B---5---5---5---5---5---5---5------------|
G---6---6---6---6---6---6---6------------|
D---7---7---7---7---7---7---7------------|
A---0---0--------------------------------|
E----------------------------------------|

E---3---1---0-----------0---0---0---0----|
B---5-----------1-------1---1---1---1----|
G---5-------------------2---2---2---2----|
D---5---------------3---3---3---3---3----|
A----------------------------------------|
E----------------------------------------|

E---4---4---4---4---5---4----------------|
B---5---5---5---5---5---5----------------|
G---6---6---6---6---6---6----------------|
D---7---7---7---7---7---7----------------|
A----------------------------------------|
E----------------------------------------|

E---3---1---0---1-(0)--------------------|
B----------------------------------------|
G----------------------------------------|
D---------------------------3---3--------|
A----------------------------------------|
E----------------------------------------|

E---4---4---4---4---5---4----------------|
B---5---5---5---5---5---5----------------|
G---6---6---6---6---6---6----------------|
D---7---7---7---7---7---7----------------|
A---0------------------------------------|
E----------------------------------------|

E---3---1---0-----------0----------------|
B---5-----------1-------1----------------|
G---5-------------------2----------------|
D---5---------------3---3----------------|
A----------------------------------------|
E----------------------------------------|

Verse 1:
   ("I sailed the moon")
E-------4---5---7---8--------------------|
B-------3-------5------------------------|
G-----------5---4------------------------|
D----------------------------------------|
A---0------------------------------------|
E----------------------------------------|

E----------------------------------------|
B-------5-------5---6---5-------5--------|
G---5-------4---------------5------------|
D----------------------------------------|
A----------------------------------------|
E----------------------------------------|

E-------4---5---7---8--------------------|
B-------3-------5------------------------|
G-----------5---4------------------------|
D----------------------------------------|
A---0------------------------------------|
E----------------------------------------|

E----------------------------------------|
B-------5-------5---6---5-------5--------|
G---5-------4---------------5------------|
D----------------------------------------|
A----------------------------------------|
E----------------------------------------|

E-------4---5---7---8--------------------|
B-------3-------5------------------------|
G-----------5---4------------------------|
D----------------------------------------|
A---0------------------------------------|
E----------------------------------------|

E----------------------------------------|
B-------5-------5---6---5-------5--------|
G---5-------4---------------5------------|
D----------------------------------------|
A----------------------------------------|
E----------------------------------------|

E-------4---5---7---8--------------------|
B-------3-------5------------------------|
G-----------5---4------------------------|
D----------------------------------------|
A---0------------------------------------|
E----------------------------------------|

E----------------------------------------|
B-------5-------5---6---5----------------|
G---5-------4----------------------------|
D----------------------------------------|
A---------------------------3------------|
E----------------------------------------|

E-------3-------8------------------------|
B---5-------5-------8--------------------|
G-----------------------9----------------|
D----------------------------------------|
A---------------------------2------------|
E----------------------------------------|

E-------3-------7---------------0--------|
B---5-------5-------8--------------------|
G-----------------------9----------------|
D----------------------------------------|
A---------------------------0------------|
E----------------------------------------|

E-------4---5---7---8--------------------|
B-------3-------5------------------------|
G-----------5---4------------------------|
D----------------------------------------|
A----------------------------------------|
E----------------------------------------|

E----------------------------------------|
B-------5-------5---6---5-------5--------|
G---5-------4---------------5------------|
D----------------------------------------|
A----------------------------------------|
E----------------------------------------|

E-------4---5---7---8--------------------|
B-------3-------5------------------------|
G-----------5---4------------------------|
D----------------------------------------|
A---0------------------------------------|
E----------------------------------------|

E----------------------------------------|
B-------5-------5---6---5-------5--------|
G---5-------4---------------5------------|
D----------------------------------------|
A----------------------------------------|
E----------------------------------------|

E-------4---5---7---8--------------------|
B-------3-------5------------------------|
G-----------5---4------------------------|
D----------------------------------------|
A---0------------------------------------|
E----------------------------------------|

E----------------------------------------|
B-------5-------5---6---5----------------|
G---5-------4----------------------------|
D----------------------------------------|
A----------------------------------------|
E----------------------------------------|

E-------3-------8------------------------|
B---5-------5-------8--------------------|
G-----------------------9----------------|
D----------------------------------------|
A---------------------------2------------|
E----------------------------------------|

E--------3-------7-----------------------|
B----5-------5-------8-------------------|
G------------------------9---------------|
D----------------------------------------|
A----------------------------------------|
E----------------------------------------|

Bridge:

E----------------------------------------|
B---2---4---4---2---2---4----------------|
G---1---1---1---1---1---1----------------|
D----------------------------------------|
A----------------------------------------|
E----------------------------------------|

E----------------------------------------|
B---5---7---7---5---8--------------------|
G---4---4---4---4---5---7---7---5--------|
D----------------------------------------|
A----------------------------------------|
E----------------------------------------|

E----------------------------------------|
B----------------------------------------|
G---5-(7)---4---4-(5)---4---2---2---0----|
D----------------------------------------|
A----------------------------------------|
E----------------------------------------|

E----------------------------------------|
B---2---4---4---2---2---4----------------|
G---1---1---1---1---1---1----------------|
D----------------------------------------|
A----------------------------------------|
E----------------------------------------|

E----------------------------------------|
B---5---7---7---5---8--------------------|
G---4---4---4---4---5---7---7---5--------|
D----------------------------------------|
A----------------------------------------|
E----------------------------------------|

E----------------------------------------|
B----------------------------------------|
G---5-(7)---4---4-(5)---4---2---2---0----|
D----------------------------------------|
A----------------------------------------|
E----------------------------------------|

maybe not completely right, but it should help

please rate and comment
            
Tabs too difficult? Try these video lessons and learn fast.


comments powered by Disqus
↑ Back to top | Tablatures and chords are parodies/interpretations of the original songs. You may use it for private study, scholarship, research or language learning purposes only