» » »

Talk Show Host Bass tabs (ver.2)

Artists:  A B C D E F G H I J K L M N O P Q R S T U V W X Y Z # 

Talk Show Host Bass tabs (ver.2)

Radiohead
Rating:
0/5 (0 votes)

Tabs too difficult? Try these video lessons and learn fast.
                Talk Show Host (Radiohead)
Bassist: Colin Greenwood


Tuning: Standard

The bass enters at 0:34

G-----------------------|--------------------------|
D----6------------------|----6---------------------|
A-------6-7-8-8---------|-------6-7-8-6------------|
E-----------------------|---------------8-6-4-6----|


Pause for a moment

G----------------------------|
D-------8--------------------|
A---/10---10-----------------| x4
E--------------888-----------|


On the fourth time, end with this

G----------------------------|
D--/10--8--------------------|
A----------10--8--6--8-------|
E----------------------------|
 

Chorus

G-----------------------|------------------------------|
D----6------------------|----6-------------------------|
A-------6-7-8-8---------|-------6-7-8-6----------------|
E-----------------------|---------------8-6-4-6--8888--|


Synth Bridge


G-------------------------------------------|
D----------5------5-8-5---------------------|
A--6--666-----------------------------------|
E------------------------8888---------------|

Once Again…

G----------------------------|
D--5-8-5---------------------|
A----------------------------|
E---------8888---------------|


“You Want Me”

G---------------------------------------|
D---------------------------------------|
A--3-1-----3----------------------------|
E------3-1----33-33---------------------|


2nd Chorus

G-----------------------|--------------------------|
D----6------------------|--------------------------|
A-------6-7-8-8---------|-----8-6------------------|
E-----------------------|---------8-6-8------------|


Return to this:

G---------------------------------------|
D---------------------------------------|
A--3-1-----3----------------------------|
E------3-1----33-33---------------------|



Second Synth Bridge

G--------------------------------|
D------------5-------------------|
A----6--666--------------8-------|
E---------------6--666-----------|


Back to this >.>

G---------------------------------------|
D---------------------------------------|
A--3-1-----3----------------------------|
E------3-1----33-33---------------------|


The rest I’ve already tabbed, but there’s a little difference in one of the chorus riffs:

G--------------------|---------------------------------|
D----6---------------|---------6h8-6-------------------|
A-------6-7-8-8------|--8-6-8----------6-7-8-6---------|
E--------------------|-------------------------8-6-4-1-|

Then it fades out eventually



Enjoy this is very underrated song/bassline =)
            
Tabs too difficult? Try these video lessons and learn fast.


comments powered by Disqus
↑ Back to top | Tablatures and chords are parodies/interpretations of the original songs. You may use it for private study, scholarship, research or language learning purposes only