» » »

The Amazing Sounds Of An Orgy Tabs (ver.1)

Artists:  A B C D E F G H I J K L M N O P Q R S T U V W X Y Z # 

The Amazing Sounds Of An Orgy Tabs (ver.1)

Radiohead
Rating:
0/5 (0 votes)

Tabs too difficult? Try these video lessons and learn fast.
                "The Amazing Sounds of Orgy" by Radiohead. Amnesiac b-side. very rough.

the main part is a descending riff, starting on E:
e-----------------------------------------------|
B-----------------------------------------------|
G-----------------------------------------------|
D-----------------------------------------------|
A---7--6--5--4----------------------------------|
E-----------------------------------------------|

i think it sounds cool to use a C# bass note to strum this out... i'll label these from 1-4,
since they're not full chords:


   1    2    3    4
e--------------------------|
B--5----4------------------|
G------------7----6--------|
D--------------------------|
A--4----4----4----4--------|
E--------------------------|

so, the verse:

  1               2            3    4
i want to see you smile again

     1        2      3    4
like diamonds in the dust

     1                   2               3    4
the amazing sound of the killing hordes

    1       2       3      4    *
the day the banks collapse   on us


*on "us" (and on "drives" in the second verse), a bass with a flash effect plays:
e-------------------------|
B-------------------------|
G-------------------------|
D-------------------------|
A---4----7----0-----------|
E-------------------------|

second verse as first, then the outro:

   C#m (x46654)       Emaj7 (xx2444)          A (x02220)
so glad            so glad             you're mine


this is really rough, but playable, anyways. suggestions/criticisms welcome and expected 
this is my first tab
            
Tabs too difficult? Try these video lessons and learn fast.




comments powered by Disqus
↑ Back to top | Tablatures and chords are parodies/interpretations of the original songs. You may use it for private study, scholarship, research or language learning purposes only