» » »

Danananana Tabs (ver.1)

Artists:  A B C D E F G H I J K L M N O P Q R S T U V W X Y Z # 

Danananana Tabs (ver.1)

Rainbow Butt Monkeys
Rating:
4/5 (1 vote)
Tabs too difficult? Try these video lessons and learn fast.
                

INTRO and VERSE
-------------------------------------------------
-------------------------------------------------
--9-9-9-7--9-9-9-7-X-X---------------------------
--9-9-9-7--9-9-9-7-X-X---------------------------
--7-7-7-5--7-7-7-5-X-X---------------------------
-------------------------------------------------
Play this 4x and end on D.

CHORUS
----------------------------------
----------------------------------
----------------------------------
-2-2-4-2-2-2-4-5------------------
-2-2-4-2-2-2-4-5------------------
-0-0-2-0-0-0-2-3------------------
Play 8x

After the 2nd Chorus theres a little Riff
RIFF 1 4x
-4-4-4-4-4-4-4-6----------------------
-4-4-4-4-4-4-4-6----------------------
-4-4-4-4-4-4-4-6----------------------
-2-2-2-2-2-2-2-4----------------------
--------------------------------------
--------------------------------------

Followed by this riff is a bridge that goes...
----------------------------------------------
----------------------------------------------
----------------------------------------------
--2---------7---------------------------------
--2---------7---------------------------------
--0---------5---------------------------------
Play this 4x

There is a riff played over the interlude. All you do is grind out the first
fret and play fast.

INTERLUDE
----------------------------------
----------------------------------
-4-4-4-4-4-4--5-5-5-5--7-7-7-7----
-2-2-2-2-2-2--3-3-3-3--5-5-5-5----
----------------------------------
----------------------------------

OUTRO  4X
----------------------------------------
----------------------------------------
-XXXXXXXXXXXXXXXX----7------------------
-XXXXXXXXXXXXXXXX----7------------------
-XXXXXXXXXXXXXXXX----5------------------
-XXXXXXXXXXXXXXXX----X------------------


Note:There are some fills in the breaks in the verses. Some of them are
listed below.

FILL 1            FILL 2             FILL 3         FILL 4
--------------    -15h16p15-16b--    --(15)-----    -12/17--17----
--------------    ---------------    -----------    -11/16--------
--------------    ---------------    -----------    --------------
--------------    ---------------    -----------    --------------
-7-7-7-7-7-7--    ---------------    -----------    --------------
-7-7-7-7-7-7--    ---------------    -----------    --------------
                                      ( )Vibrate

LYRICS

No one hates you more then you do
You can't stand what you are
There's nothing I can ever say
To change you, to change you, to change you
It's all you are, it's all you'll ever be
If you go, let it go, let it go, let it go

Chorus
Turn on yourself 4x
Turn on, do you bite, would you bite

It burns so bad inside of you
Its easy for you to look away
You'll find a way, just stay away
Hiding it, hiding it, hiding it
But everything turns into to light
Looking down to your right dresting eyes

Your look, your smile, you brighten the day
You learned to hate yourself again
Believe your lie, its easier
Believe in your lie, its easier

Hallo, away from everything
You get out on the figeness you bring
With a fear its there, so hold you close
Closer, closer, closer
Give yourself more then this, you can live without love
Let your soul bring again, bring yourself.===========

Danananana (Rainbow Butt Monkeys)

b=Bend Till It Sounds

Main Riff:
------------------------------------------------------------------
9-9-9--7---(9)----------------------------------------------------
9-9-9--7---(9)----------------------------------------------------
9-9-9--7---(9)----------------------------------------------------
9-9-9--7---(9)----------------------------------------------------
7-7-7--5---(7)----------------------------------------------------

Couple Fills During the Main Riff:
-----------|-----------|----------|---------------------------------
----7-9b---|-----------|----------|---------------------------------
7/9--------|---999999--|---9b--7--|---------------------------------
-----------|-----------|----------|---------------------------------
-----------|-----------|----------|---------------------------------
-----------|-----------|----------|---------------------------------

Chorus:
------------------------------------------------------------------
------------------------------------------------------------------
------------------------------------------------------------------
-----------7------------------------------------------------------
-----------5-----4-5----------------------------------------------
0-0-0-00-----00--2-3----------------------------------------------

During Solo Play:
--------------------------------------------------------------------
9-------------7-----------------------------------------------------
9-------------7-----------------------------------------------------
9-------------7-----------------------------------------------------
9-------------7-----------------------------------------------------
7--(ring)-----5---(ring)--------------------------------------------


Guitar 1:
(Palm Mute)
------------------------------------------------------------------
------------------------------------------------------------------
------------------------------------------------------------------
------------------------------------------------------------------
------------------------------------------------------------------
0000000000-->-----------------------------------------------------

Guitar 2:
------------------------------------------------------------------
7-7-7---7-7---10-10-10--/--12-12---------------------------------
7-7-7---7-7---10-10-10--/--12-12---------------------------------
7-7-7---7-7---10-10-10--/--12-12---------------------------------
7-7-7---7-7---10-10-10--/--12-12----------------------------------
9-9-9---9-9---8--8--8---/--10-10-----------------------------
            
Tabs too difficult? Try these video lessons and learn fast.


comments powered by Disqus
↑ Back to top | Tablatures and chords are parodies/interpretations of the original songs. You may use it for private study, scholarship, research or language learning purposes only