» » »

Blood Clot Tabs (ver.3)

Artists:  A B C D E F G H I J K L M N O P Q R S T U V W X Y Z # 

Blood Clot Tabs (ver.3)

Rancid
Rating:
0/5 (0 votes)

Tabs too difficult? Try these video lessons and learn fast.
                Rancid - Bloodclot


Intro:
E------------------------------------------|
B------------------------------------------|
G--10-10-10-10-10-----8-8------------------|
D--10-10-10-10-10-----8-8-8-8-8-8-8--------| 
A---8--8--8--8--8-----6-6-8-8-8-8-8--------|
E-------------------------6-6-6-6-6--------|


Verse:
E------------------------------------------|
B------------------------------------------|
G--10-10-10----8-10-10----10-10-10-8-10----|
D-----------10-----------------------------|                       
A------------------------------------------|
E------------------------------------------|               

 then it goes

E------------------------------------------|
B------------------------------------------|
G--10-10-10-10-10-----8-8------------10-10-|
D--10-10-10-10-10-----8-8-8-8-8-8-8--10-10-| 
A---8--8--8--8--8-----6-6-8-8-8-8-8--8--8--|
E-------------------------6-6-6-6-6--------|            

Chorus:

D
Now my guns are blazing
C
Bloodclot I can see 360
D
Now my guns are blazing
Bb                C
Pick it back up and start it all over again  

Intro x2
         
Then, after "GO!" 
E------------------------------------------|
B------------------------------------------|
G--10-10-10-10-10-----8-8-8-8-8-8-8--------|
D--10-10-10-10-10-----8-8-8-8-8-8-8--------| 
A---8--8--8--8--8-----6-6-6-6-6-6-6--------|
E------------------------------------------|            
 
Interlude
E------8------6-6---6--6---6-6-------------|
B-----10------6-6---6--6---6-6-------------|
G-----10------7-7---8--8---7-7-------------|
D-----10------8-8---8--8---8-8-------------| 
A--8---------------------------------------|
E------------------------------------------|

E------8---------------------|
B-----10---------------------|
G-----10----8----------------|
D-----10----8----8-----------|
A--8--------6----8-----------|
E----------------6-----------|
            
Tabs too difficult? Try these video lessons and learn fast.




comments powered by Disqus
↑ Back to top | Tablatures and chords are parodies/interpretations of the original songs. You may use it for private study, scholarship, research or language learning purposes only