» » »

Gave It Away Bass tabs (ver.1)

Artists:  A B C D E F G H I J K L M N O P Q R S T U V W X Y Z # 

Gave It Away Bass tabs (ver.1)

Rancid
Rating:
0/5 (0 votes)

Tabs too difficult? Try these video lessons and learn fast.
                RANCID - GAVE IT AWAY
LETS GO: 1994
TUNING: STANDARD E.A.D.G


INTRO: X 2
              
G:|----------|
D:|--------7-|
A:|-----5----|
E:|3---------|

3RD TIME DO THIS: X 2

G:|----------|
D:|--------7-|
A:|-----5----|
E:|3-3-3-----|

INTRO: EVERYONE: X 4

G:|---------------------|
D:|---------------7-777-|
A:|---------5-555-------|
E:|3-333333-------------|

VERSE: X 4

G:|-----------------------------------|
D:|-----------------------------------|
A:|5-555555------------------5-555555-|
E:|---------3-2-0-3-5-555555----------|

CHROUS: X 4

G:|-------------------|
D:|-------------------|
A:|---------5-55------|
E:|3-333333------5-55-|

VERSE: X 4

G:|-----------------------------------|
D:|-----------------------------------|
A:|5-555555------------------5-555555-|
E:|---------3-2-0-3-5-555555----------|

CHORUS: X 4

G:|-------------------|
D:|-------------------|
A:|---------5-55------|
E:|3-333333------5-55-|


GAP: X 2

G:|----------|
D:|--------7-|
A:|-----5----|
E:|3---------|

3RD TIME DO THIS: X 2

G:|----------|
D:|--------7-|
A:|-----5----|
E:|3-3-3-----|


CHORUS: X 4

G:|-------------------|
D:|-------------------|
A:|---------5-55------|
E:|3-333333------5-55-|

ENDING: FOLLOW DRUMS

G:|-------|
D:|-------|
A:|5----5-|
E:|-------|



THATS IT. ENJOY, ABOUT TIME SOMEONE TABBED THIS SONG, DESERVES TO BE PLAYED LOUD. RANCID PUNX!!!
            
Tabs too difficult? Try these video lessons and learn fast.


comments powered by Disqus
↑ Back to top | Tablatures and chords are parodies/interpretations of the original songs. You may use it for private study, scholarship, research or language learning purposes only