» » »

She's Automatic Bass tabs (ver.2)

Artists:  A B C D E F G H I J K L M N O P Q R S T U V W X Y Z # 

She's Automatic Bass tabs (ver.2)

Rancid
Rating:
0/5 (0 votes)
Tabs too difficult? Try these video lessons and learn fast.
                - Rancid - She's Automatic
- Easy song, but pretty cool! 

___________________


Verse [2x]
G|-------------------------------------|
D|-------------------------------------|
A|-3-3------3-3---------------3-3-310--|
E|-----3333-----3333-1-1-3333--------3-|

Chorus
G|-------------------------------------|
D|-------------------------------------|
A|--------------------------------1-13-|
E|-1-111110-1-111110-3-333331-3-33-3---|

G|----------------------|
D|----------------------|
A|----------------------|
E|-1-111110-1-111110-3~-|

Verse 
   [1x]
G|-------|-------------------------------------|
D|-------|-------------------------------------|
A|-0-1-2-|-3-3------3-3---------------3-3-310--|
E|-------|-----3333-----3333-1-1-3333--------3-|

Chorus

Guitar Solo
G|--------------------------------------------|
D|--------------------------------------------|
A|-0-1-2-3-3-2-1-0------0-1-2-3-3-2-1-0---0-1-|
E|-----------------1-1------------------1-----|

G|---------------------------------------|
D|---------------------------------------|
A|-3-3-2-1-0-----0-1-2-3-3-2-1-0---0-1-3-|
E|-----------1-1-----------------1-------|

Verse [01:02] [listen to the song to get this right]
G|-----------------5-|
D|-----5---5-3-5-----|
A|-1/3---3-------3---|
E|-------------------|

Chorus

Ending
G|-------------------------------------------------------|
D|-------------------------------------------------------|
A|-0-1-2-3-333-2-1-0-------0-1-2-3-333-2-1-0---------1-2-|
E|-------------------1-111-------------------1-111-3-----|

G|---------------------------------------------------|
D|---------------------------------------------------|
A|-3-333-2-1-0-------0-1-2-3-333-2-1-0---------1-2-3-|
E|-------------1-111-------------------1-111-3-------|

G|---------|
D|---------|
A|---0-1-3-|
E|-3-------|
            
Tabs too difficult? Try these video lessons and learn fast.


comments powered by Disqus
↑ Back to top | Tablatures and chords are parodies/interpretations of the original songs. You may use it for private study, scholarship, research or language learning purposes only