» » »

The Harder They Come Tabs (ver.1)

Artists:  A B C D E F G H I J K L M N O P Q R S T U V W X Y Z # 

The Harder They Come Tabs (ver.1)

Rancid
Rating:
0/5 (0 votes)

Tabs too difficult? Try these video lessons and learn fast.
                Tom
Standard tuning 

Intro

------------------------------
-----8---6---4---6----------
-----8---6---4---6----------   x2
-----6---4---2---4-------- 
----------------------------

Verses

----5-------7--------5------4------------------------------------ 
----5-------7--------5------4------------------------------------- 
----3-------5--------3------2-------------------------------------- 

Chorus 
---------------------|---------------------|---------------------each chord is for
-------------------- |---------------------|----------------------each song line 
-----4--------------|---------------------|-------------7-------- the 2 and 3 line
-----4------7------|--------7-----5------|-----7---5----7--------- has more     
-----2---- -7------|--------7-----5-------|----7---5----5------------than 1 chord 
------------5------|--------5-----3--------|---5---3---------------- in it so i
                                                                     divided it up
break - intro                                                        for you
                                                                      
            
Tabs too difficult? Try these video lessons and learn fast.


comments powered by Disqus
↑ Back to top | Tablatures and chords are parodies/interpretations of the original songs. You may use it for private study, scholarship, research or language learning purposes only