>
 >
Life Is A Highway 3

Life Is A Highway 3 Guitar Tabs

Rascal Flatts - Life Is A Highway 3 chords, tabs, tablatures, lyrics

Guitar lessons | Add/correct | Request | Top 50 tabs Artists:  A B C D E F G H I J K L M N O P Q R S T U V W X Y Z 0-9

Life Is A Highway 3 Guitar Tabs – Rascal Flatts

CD, Sheet music, Poster

Do you like Life Is A Highway 3? Share with your friends now
Bass TabsBass Tabs v2Bass Tabs v3Bass Tabs v4ChordsChords v2Chords v3Chords v4TabsTabs v2Tabs v3Tabs v4Ukulele
Pre-intro
E|---------------------------------|---------------------------------|
B|--13----13----13----13---131313--|--13----13----13----13---131313--|
G|--10----10----10----10---101010-|--10----10----10----10---101010--|
D|---------------------------------|---------------------------------|
A|---------------------------------|---------------------------------|
E|---------------------------------|---------------------------------|

E|---------------------------------|---------------------------------|
B|--13----13----13----13---131313--|--13----13----13----13---131313--|
G|--10----10----10----10---101010-|--10----10----10----10---101010--|
D|---------------------------------|---------------------------------|
A|---------------------------------|---------------------------------|
E|---------------------------------|---------------------------------|

Intro
e [--------------------------------------------------------]
B [--------------------------------------------------------]
G [--------------------------------------------------------]
D [-7--5--3-3-----3--2----------3--2--5-5-----3--2--5-5----]
A [-5--3--1-1-----1--0--3-3-----1--0--3-3-----1--0--3-3----]
E [---------------------1-1--------------------------------]

e [--------------------------------------------------------]
B [--------------------------------------------------------]
G [--------------------------------------------------------]
D [-7--5--3-3-----3--2----------3--2--5-5-----3--2--5-5----]
A [-5--3--1-1-----1--0--3-3-----1--0--3-3-----1--0--3-3----]
E [---------------------1-1--------------------------------]

Verse (w/distortion) play this twice   
e[-----------------------------------]   
B[-----------------------------------]
G[-----------------------------------]
D[-----------------------------------]
A[-3-3-3-3-3-3-3-3-------------------]
E[-----------------1-1-1-1-1-1-1-1---]
PM....................................

e[-----------------------------------]   
B[-----------------------------------]
G[-----------------------------------]
D[-----------------------------------]
A[-3-3-3-3-3-3-3-3-------------------]
E[-----------------1-1-1-1-1-1-1-1---]
PM....................................

Pre-chorus{play each one loud & you can flang it a little if you want to}
e[----------------------------]   
b[----------------------------]
g[----------------------------]
d[--------5------3------------]
a[-5------3------1------5-----]
e[-3--------------------3-----]


chorus 
e [--------------------------------------------------------]
B [--------------------------------------------------------]
G [--------------------------------------------------------]
D [-7--5--3-3-----3--2----------3--2--5-5-----3--2--5-5----]
A [-5--3--1-1-----1--0--3-3-----1--0--3-3-----1--0--3-3----]
E [---------------------1-1--------------------------------]

e [--------------------------------------------------------]
B [--------------------------------------------------------]
G [--------------------------------------------------------]
D [-7--5--3-3-----3--2----------3--2--5-5-----3--2--5-5----]
A [-5--3--1-1-----1--0--3-3-----1--0--3-3-----1--0--3-3----]
E [---------------------1-1--------------------------------]

Verse (w/distortion) play this twice   
e[-----------------------------------]   
B[-----------------------------------]
G[-----------------------------------]
D[-----------------------------------]
A[-3-3-3-3-3-3-3-3-------------------]
E[-----------------1-1-1-1-1-1-1-1---]
PM....................................

e[-----------------------------------]   
B[-----------------------------------]
G[-----------------------------------]
D[-----------------------------------]
A[-3-3-3-3-3-3-3-3-------------------]
E[-----------------1-1-1-1-1-1-1-1---]
PM....................................

Pre-chorus{play each one loud & you can flang it a little if you want to}
e[----------------------------]   
b[----------------------------]
g[----------------------------]
d[--------5------3------------]
a[-5------3------1------5-----]
e[-3--------------------3-----]


chorus 
e [--------------------------------------------------------]
B [--------------------------------------------------------]
G [--------------------------------------------------------]
D [-7--5--3-3-----3--2----------3--2--5-5-----3--2--5-5----]
A [-5--3--1-1-----1--0--3-3-----1--0--3-3-----1--0--3-3----]
E [---------------------1-1--------------------------------]

e [--------------------------------------------------------]
B [--------------------------------------------------------]
G [--------------------------------------------------------]
D [-7--5--3-3-----3--2----------3--2--5-5-----3--2--5-5----]
A [-5--3--1-1-----1--0--3-3-----1--0--3-3-----1--0--3-3----]
E [---------------------1-1--------------------------------]

Bridge (w/distortion)
e[-----------------------------]
B[-----------------------------]
G[-----------------------------]
D[---------3------7-------5----]
A[-5-------1------5-------3----]
E[-3---------------------------]
PM..............................

e[-----------------------------]
B[-----------------------------]
G[-----------------------------]
D[---------3------7-------5----]
A[-5-------1------5-------3----]
E[-3---------------------------]
PM..............................

Interlude
E|---------------------------------|---------------------------------|
B|--13----13----13----13---131313--|--13----13----13----13---131313--|
G|--10----10----10----10---101010-|--10----10----10----10---101010--|
D|---------------------------------|---------------------------------|
A|---------------------------------|---------------------------------|
E|---------------------------------|---------------------------------|
p.m..................................................................

E|---------------------------------|---------------------------------|
B|--13----13----13----13---131313--|--13----13----13----13---131313--|
G|--10----10----10----10---101010-|--10----10----10----10---101010--|
D|---------------------------------|---------------------------------|
A|---------------------------------|---------------------------------|
E|---------------------------------|---------------------------------|
P.m

Pre-chorus{play each one loud & you can flang it a little if you want to}
e[----------------------------]   
b[----------------------------]
g[----------------------------]
d[--------5------3------------]
a[-5------3------1------5-----]
e[-3--------------------3-----]
chorus 
e [--------------------------------------------------------]
B [--------------------------------------------------------]
G [--------------------------------------------------------]
D [-7--5--3-3-----3--2----------3--2--5-5-----3--2--5-5----]
A [-5--3--1-1-----1--0--3-3-----1--0--3-3-----1--0--3-3----]
E [---------------------1-1--------------------------------]

e [--------------------------------------------------------]
B [--------------------------------------------------------]
G [--------------------------------------------------------]
D [-7--5--3-3-----3--2----------3--2--5-5-----3--2--5-5----]
A [-5--3--1-1-----1--0--3-3-----1--0--3-3-----1--0--3-3----]
E [---------------------1-1--------------------------------]
e [--------------------------------------------------------]
B [--------------------------------------------------------]
G [--------------------------------------------------------]
D [-7--5--3-3-----3--2----------3--2--5-5-----3--2--5-5----]
A [-5--3--1-1-----1--0--3-3-----1--0--3-3-----1--0--3-3----]
E [---------------------1-1--------------------------------]

e [--------------------------------------------------------]
B [--------------------------------------------------------]
G [--------------------------------------------------------]
D [-7--5--3-3-----3--2----------3--2--5-5-----3--2--5-5----]
A [-5--3--1-1-----1--0--3-3-----1--0--3-3-----1--0--3-3----]
E [---------------------1-1--------------------------------]

End.





Comments


Popular Rascal Flatts tabs & chords
Bless The Broken Road 3 Chords
Come Wake Me Up 3 Chords
Day Before You Chords
Here Chords
Praying For Daylight Chords
Still Feels Good Chords
This Everyday Love Chords
I Melt 1 Tabs
Red Camaro Intro Tabs
My Worst Fear Ukulele


Song lyrics



↑ Back to top | Tablatures and chords are parodies/interpretations of the original songs. You may use it for private study, scholarship, research or language learning purposes only
© 2014 AZChords.com Contact us | Privacy policy | DMCA | Add/correct tabs | Request tabs | Top 50 tabs