» » »

Ratcatcher Tabs (ver.1)

Artists:  A B C D E F G H I J K L M N O P Q R S T U V W X Y Z # 

Ratcatcher Tabs (ver.1)

Rascals
Rating:
4/5 (2 votes)

Tabs too difficult? Try these video lessons and learn fast.
                                         Ratcatcher - The Rascals
----------------------------------------------------------------------------

Intro

e|---------------------------------|
B|---------------------------------|
G|---------------------------------|
D|-5----11----3-3-3-3-3-3-3-3-3-3--|
A|-5----11----3-3-3-3-3-3-3-3-3-3--|
E|-3-----9----1-1-1-1-1-1-1-1-1-1--|


(Slide between chord changes)
e|-------------------------------------------|
B|-------------------------------------------|
G|-------------------------------------------|
D|-5-5-5-5--11-11-11-11--3-3-3-3-3-3-3-3-3-3-|
A|-5-5-5-5--11-11-11-11--3-3-3-3-3-3-3-3-3-3-|
E|-3-3-3-3--9--9--9--9---1-1-1-1-1-1-1-1-1-1-|

e|------------------------------------------------------------------|
B|------------------------------------------------------------------|
G|------------------------------------------------------------------|
D|-5-5-5-5--11-11-11-11--10-10-10-10--9-9-9-9--10-10-10-10--9-9-9-9-|
A|-5-5-5-5--11-11-11-11--10-10-10-10--9-9-9-9--10-10-10-10--9-9-9-9-|
E|-3-3-3-3---9--9--9--9---8--8--8--8--7-7-7-7---8--8--8--8--7-7-7-7-|

e|-------------------------------------------|
B|-------------------------------------------|
G|-------------------------------------------|
D|-5-5-5-5--11-11-11-11--3-3-3-3-3-3-3-3-3-3-| x2
A|-5-5-5-5--11-11-11-11--3-3-3-3-3-3-3-3-3-3-|
E|-3-3-3-3--9--9--9--9---1-1-1-1-1-1-1-1-1-1-|

e|-------------------------------------------|
B|-------------------------------------------|
G|-------------------------------------------|
D|-5----11----5----11----5----11-------------|
A|-5----11----5----11----5----11--let ring---|
E|-3-----9----3-----9----3-----9-------------|

e|---------------------------------------------|
B|---------------------------------------------|
G|---------------------------------------------|
D|-3-3-3-3--11-11-11-11--3-3-3-3--11-11-11-11--| x2
A|-3-3-3-3--11-11-11-11--3-3-3-3--11-11-11-11--|
E|-1-1-1-1---9--9--9--9--1-1-1-1---9--9--9--9--|

  (Tremolo picking and slide between notes)
e|-----------------------|
B|-----------------------|
G|-----------------------| x2
D|-----------------------|
A|-8--16--8--16--19------|
E|-----------------------|

Solo (1:07)

e|-----------------------------------|
B|-----------------------------------|
G|-----------------------------------|x2
D|-----11-10---10\13-13-11-10--------|
A|-6\8-------------------------------|
E|-----------------------------------|

e|-----------------------------------------------------|
B|------16-16-14-13---16b-16r--------------------------|
G|-----------------------------------------------------|
D|-13b-13r------------------------13-11-10---13b-13r---|
A|-----------------------------------------------------|
E|-----------------------------------------------------|

e|-----------------------------------|
B|-----------------------------------|
G|-----------------------------------|
D|-----11-10---10\13-13-11-10--------|
A|-6\8-------------------------------|
E|-----------------------------------|

e|--------------------------------|
B|--------------------------------|
G|--------------------------------|x4
D|-----------------11-11-10-10----|
A|-8-8-8-8-8-8-8------------------|
E|--------------------------------|

e|--------------------------------------------|
B|--------------------------------------------|
G|--------------------------------------------|x3
D|-13-13-13--11-11-11-10-10-10----------------|
A|--------------------------------8-8-8-8-8-8-|
E|--------------------------------------------|

e|----------------------------|
B|----------------------------|
G|----------------------------|
D|-13-13-13--11-11-11-10v-----|
A|----------------------------|
E|----------------------------|


| /  slide up
| \  slide down
| v  vibrato


That’s about it.  If you have any queries or questions or stuff like that please feel 
            
Tabs too difficult? Try these video lessons and learn fast.


comments powered by Disqus
↑ Back to top | Tablatures and chords are parodies/interpretations of the original songs. You may use it for private study, scholarship, research or language learning purposes only