» » »

Lluvia Purpura Tabs (ver.1)

Artists:  A B C D E F G H I J K L M N O P Q R S T U V W X Y Z # 

Lluvia Purpura Tabs (ver.1)

Rata Blanca
Rating:
0/5 (0 votes)

Tabs too difficult? Try these video lessons and learn fast.
                Lluvia Purpura-Rata Blanca
Cuando reinaba el Rock&Roll
;D
purpura
lluvia
purpura
****Joelmistabs****
Paradise xP
esta rola esta chida xD

Intro:
e|-------------------------------------------------------------|
b|-------------------------------------------------------------|
g|------3-5--5--3-5--7--3-5--3--------------3-5--5--3-5--------|
d|-3-5--3-5--5--3-5--7--3-5--3--5--3---3-5--3-5--5--3-5--3--5--|x2
a|-3-5--1-3--3--1-3--5--1-3--1--5--3---3-5--1-3--3--1-3--3--5--|
E|-1-3--------------------------3--1---1-3---------------1--3--|

e|----------|--------------------|
B|----------|--------------------|
G|----------|---3p0--------------|
D|-3/5-x--5-|-------3p0----------|x7
A|-3/5-x--5-|-----------3-1------|
E|-1/3-x--3-|---------------3-1--|


Acompañamiento:
e|-------------------------------------------------------------------|
b|-------------------------------------------------------------------|
g|-------------------------------------------------------------------|
d|-------------------------------------------------------------------|
a|-8---------------6---------5-6-7--4---------3-4-5--6---------------|
E|---5-6-7-8-1-3-5---3-4-5-6----------1-2-3-4----------3-4-5-6-5-4-3-|

e|--------------------------------------------------------------|
b|--------------------------------------------------------------|
g|--3-----------------------------------------------------------|
d|-----5-6-7------------------------------------------------5~--|
a|-----------5-6-7---0-3--0-5--0-6--0-7------0-3--0-5--0-7------|
E|---------------------------------------3~---------------------|

e|----------------------------|
b|---------------------9~-----|
g|---5----7----8----9---------|
d|-7----7----7----7-----------|
a|----------------------------|
E|----------------------------|


hahaha ahy esta solo acomdenla haha esk ya me tarde muchisimo en escribirla 
xD
            
Tabs too difficult? Try these video lessons and learn fast.


comments powered by Disqus
↑ Back to top | Tablatures and chords are parodies/interpretations of the original songs. You may use it for private study, scholarship, research or language learning purposes only