» » »

Por Que Es Tan Dificil Amar Bass tabs (ver.1)

Artists:  A B C D E F G H I J K L M N O P Q R S T U V W X Y Z # 

Por Que Es Tan Dificil Amar Bass tabs (ver.1)

Rata Blanca
Rating:
0/5 (0 votes)

Tabs too difficult? Try these video lessons and learn fast.
                
PORQUE ES TAN DIFÍCIL AMAR (Bassline)
As recorded by Rata Blanca
(From the 1990 Album MAGOS, ESPADAS Y ROSAS)

	

Music by Walter Giardino

Gtr I (D A D G B E) - 'Piano'
Gtr II (D A D G) - 'Bass'
Gtr III (E A D G B E) - 'Synth'

 Section 1
  Q=50
  Bm                 Em
 4/4
  Gtr I
  E E E E  E E E E   E E E  E  E  E  E E
|-7-------10---7---|-------10-12----10-7-|
|-7--------7-----7-|-----8--8--8-------8-|
|-----7----7-------|-9------------9------|
|---9---9----9-----|---9-----------------|
|------------------|---------------------|
|------------------|---------------------|
|
| Gtr II
| W                  H        +Q.      E
|------------------|---------------------|
|------------------|---------------------|
|-2----------------|---------------------|
|------------------|-2--------(2)------2-|


  F#                  Bm
  E E E E  E  E E E   E E E E  E E E E
|-6--------9----6---|-7-----7-10---7---|
|-7---7----7----7---|-7-----7--7-----7-|
|---6---6-----6---6-|-----7------7-----|
|-------------------|---9--------------|
|-----------------9-|------------------|
|-------------------|------------------|
|
| H       +Q.     E   W
|-------------------|------------------|
|-------------------|------------------|
|-------------------|-2----------------|
|-4-------(4)-----4-|------------------|


  B                 Em
  E E E E E E E E   E E E  E  E  E  E E
|-7-----7-7-----7-|-------10-12----10-7-|
|-7---7---7-------|-----8--8--8-------8-|
|---8-------8-9---|---9----------9------|
|-----------------|-9-------------------|
|-----------------|-7-------------------|
|-----------------|---------------------|
|
| H       H         H        +Q.      E
|-----------------|---------------------|
|-----------------|---------------------|
|-2---------------|---------------------|
|---------1-------|-2--------(2)------2-|


  A                     D
   E E  E E  E E  E E    E  E  E  E  E   E  E  E
|--9------7--9------9-|-10----------10------9-----|
|-10---10---10---10---|-------10-10-10-----10-10--|
|----9---------9------|----11----11-----11--------|
|---------------------|---------------------------|
|---------------------|---------------------------|
|---------------------|---------------------------|
|
|  H         H           H          +Q.        E
|---------------------|---------------------------|
|---------------------|---------------------------|
|--0---------4--------|--5----------(5)--------5--|
|---------------------|---------------------------|


  G                 Em      F#        Bm                Bm6add9  F#
  E E E E E E E E   E E E E E E E E   E E E E E E E E    E E E E Q   E  E
|-7-----5-7-----7-|-------7-6-----6-|-7-----7-7---9-7-|-10-----7-6--14-12--||
|-8---8---8---8---|-------8-7---7---|-7-----7-7-7-7-7-|------8---7---------||
|---7-------7-----|-----9-----6-----|-----7-----7-----|--7-7---------------||
|-----------------|-9-9-------------|---9-------------|--------------------||
|-----------------|-7---------------|-----------------|--------------------||
|-----------------|-----------------|-----------------|--------------------||
|
| H       H         H       H         H       H          H       H
|-----------------|-----------------|-----------------|--------------------||
|-----------------|-----------------|---------6-------|--------------------||
|---------2-------|-----------------|-2---------------|----------1---------||
|-5---------------|-2-------4-------|-----------------|--4-----------------||


 Section 2
  Bm     A       G          D     A               D        Dmaj7
   Q  Q   H       W                W               W
|-11-----------|----------------|---------------|---------------|
|--------------|----------------|---------------|---------------|
|--8-----------|----------------|---------------|---------------|
|--------------|----------------|---------------|---------------|
|--------------|----------------|---------------|---------------|
|--------------|----------------|---------------|---------------|
|
| Gtr III
|  H      H       H.         Q     H      H        H.       Q
|--------------|-12-------------|---------------|-10------------|
|-12-----10----|-12-------------|--------14-----|-10-------14---|
|-11------9----|-12---------12--|-14----(14)----|-11-------14---|
|--9------7----|-14---------12--|-14----(14)----|----------12---|
|--------------|----------------|-12-----12-----|---------------|
|--------------|----------------|---------------|---------------|
|
| Gtr II
|  H      H       Q.   E Q   Q     H      H        H.       Q
|--------------|----------------|---------------|---------------|
|--------------|----------------|---------------|---------------|
|--2------0----|----------------|--0------4-----|--5--------4---|
|--------------|--5----4-2---0--|---------------|---------------|


  G     D/F#    Em    F#          Bm    D
  Gtr III
   H     H       H     Q    Q      H     Q   Q
|-------------|-----------------|---------------|
|-12----12----|-12---------11---|-12------------|
|-12----11----|-12----11--(11)--|-11----12------|
|-------------|-14--------------|-------12--12--|
|-14----------|-----------------|---------------|
|-------------|-----------------|---------------|
|
| Gtr II
|  H     H       H     H           H     Q   Q
|-------------|-----------------|---------------|
|-------------|-----------------|---------------|
|-------------|-----------------|--2-----5---4--|
|--5-----4----|--2-----4--------|---------------|


  Em          Bm      N.C.
                     2/4
       |-3-|
   Q   Q   E   H       Q    Q
|-12----------------|------14----||
|---------11--12----|-16---------||
|-12--11-(11)-11----|------11----||
|-14--11-(11)-------|-13---------||
|-------------------|------------||
|-------------------|------------||
|
|  H           H      +H
|-------------------|------------||
|-------------------|------------||
|--------------2----|-(2)--------||
|--2----------------|------------||


 Section 3
  N.C.(Em)                (A)
 4/4
  Gtr I
   S  S  S  S  S  S  S  S  S  S  S  S  S  S  S  S
|-15-14-15-------------------------------------12-|
|----------17-15-17-15-14-17-15-17-14----12-14----|
|-------------------------------------14----------|
|-------------------------------------------------|
|-------------------------------------------------|
|-------------------------------------------------|
|
| Gtr III
|  >
|  W
|-19----------------------------------------------|
|-------------------------------------------------|
|-16----------------------------------------------|
|-------------------------------------------------|
|-------------------------------------------------|
|-------------------------------------------------|
|
| Gtr II
|  Q           Q           Q           Q
|-------------------------------------------------|
|--------------5----------------------/6----------|
|--------------------------0----------------------|
|--2----------------------------------------------|


  (D)                     (G)
   S  S  S  S  S  S  S  S  S  S  S  S  S  S  S  S
|-14-12-14----------------------------------------|
|----------15-14-15-12----12----12-------12-14-15-|
|----------------------14----14----12-12----------|
|-------------------------------------------------|
|-------------------------------------------------|
|-------------------------------------------------|
|
|  W
|-------------------------------------------------|
|-------------------------------------------------|
|-------------------------------------------------|
|-------------------------------------------------|
|-------------------------------------------------|
|-------------------------------------------------|
|
|  Q           Q           Q           Q
|-------------------------------------------------|
|-------------------------------------/9----------|
|-------------/9----------------------------------|
|--0-----------------------5----------------------|


  (Em6add9)               (Dm/maj7/B)
   S  S  S  S  S  S  S  S  S  S  S  S  S  S  S  S
|-12----12----14-12-------------------13----------|
|----15----14-------15-14-15-14-15-12----15-14-12-|
|-------------------------------------------------|
|-------------------------------------------------|
|-------------------------------------------------|
|-------------------------------------------------|
|
| Gtr II
|  Q           Q           Q           Q
|-------------------------------------------------|
|--------------4-----------------------3----------|
|--------------------------2----------------------|
|--2----------------------------------------------|


  (F#)        (Em)        D           (C#m)
   S  S  S  S  S  S  S  S  S  S  S  S  S  S  S  S
|-------------------------------------------------||
|-------------------------------------------------||
|-15-16-14-12-11----11-12-11----11----------------||
|----------------14----------14----12-12-14-12-11-||
|-------------------------------------------------||
|-------------------------------------------------||
|
|  Q           Q           Q           Q
|-------------------------------------------------||
|--4-----------2----------------------------------||
|--------------------------5-----------4----------||
|-------------------------------------------------||


 Section 4
  Bm             Em             F#             Bm
  Gtr III
   W              W              W              W
|-10-----------|-12-----------|-14-----------|--------------|
|-12-----------|-12-----------|-14-----------|-15-----------|
|-11-----------|-12-----------|-15-----------|-16-----------|
|-12-----------|-14-----------|-16-----------|-16-----------|
|--------------|--------------|--------------|-14-----------|
|--------------|--------------|--------------|--------------|
|
| Gtr II
|  Q.   E H       Q.   E H       Q.   E H       Q.   E H
|--------------|--------------|--------------|--------------|
|--------------|--------------|--------------|--------------|
|--2------2----|--------------|--------------|--2------2----|
|-------0------|--2----0-2----|--4----0-4----|-------0------|


  B              Em             A              D
   W              W              W              W
|--------------|--------------|--------------|--------------|
|-16-----------|-17-----------|-17-----------|-19-----------|
|-16-----------|-16-----------|-18-----------|-19-----------|
|-16-----------|-17-----------|-19-----------|-19-----------|
|-18-----------|-19-----------|-19-----------|-21-----------|
|--------------|--------------|--------------|--------------|
|
|  Q.   E H       Q.   E H       Q.   E H       Q.   E H
|--------------|--------------|--------------|--------------|
|--------------|--------------|--------------|--------------|
|--2------2----|--------------|--------------|--5------5----|
|-------0------|--2----0-2----|--7----0-7----|-------0------|


  G              Em      F#      Bm      Em      F#
   W              H       H       H       H       W
|--------------|---------------|---------------|--------------||
|-15-----------|-17------14----|-15------17----|-14-----------||
|-16-----------|-16------15----|-16------16----|-15-----------||
|-17-----------|-17------16----|-16------17----|-16-----------||
|-17-----------|-19------16----|-17------19----|-16-----------||
|--------------|---------------|---------------|--------------||
|
|  Q.   E H       Q.   E  H       Q.   E  H       Q.   E H
|--------------|---------------|---------------|--------------||
|--------------|---------------|---------------|--4-----------||
|--------------|---------------|--2------------|--------------||
|--5----0-0----|--2----0--4----|-------0--2----|-------4-4----||


 Section 5
  Bm             Em             A              D
   W              W              W              W
|--------------|--------------|--------------|----------------|
|-15-----------|-17-----------|-17-----------|-19-------------|
|-16-----------|-16-----------|-18-----------|-19-------------|
|-17-----------|-17-----------|-19-----------|-19-------------|
|-17-----------|-19-----------|-19-----------|-21-------------|
|--------------|--------------|--------------|----------------|
|
|  Q.   E H       Q.   E H       Q.   E H       Q.   E Q  Q
|--------------|--------------|--------------|----------------|
|--------------|--------------|--------------|----------------|
|--2------2----|--------------|--------------|--5------5--4---|
|-------0------|--2----0-2----|--7----0-7----|-------0--------|


  G              Em      F#      Bm      G   F#    B
   W              H       H       H       Q   Q     W
|--------------|---------------|-----------------|-------||
|-15-----------|-17------14----|-15------15--14--|-16----||
|-16-----------|-16------15----|-16------16--15--|-16----||
|-17-----------|-17------16----|-16------17--16--|-16----||
|-17-----------|-19------16----|-17------17--16--|-18----||
|--------------|---------------|-----------------|-------||
|
|  Q.   E H       Q.   E  H       Q.   E  Q   Q     W
|--------------|---------------|-----------------|-------||
|--------------|---------------|-----------------|-------||
|--------------|---------------|--2--------------|--2----||
|--5----0-5----|--2----0--4----|-------0--5---4--|-------||


 Section 6
  Em    A           D     G               C     F#      Bm    B
   H     H           H     H               H     H       H     H
|-----------------|-14------------------|-12----------|-------------|
|-17----17--------|-15----15------------|-13----14----|-15----16----|
|-16----18--------|-14----16------------|-12----15----|-16----16----|
|-17----19--------|-16----17------------|-14----16----|-16----16----|
|-19----19--------|-------17------------|-------16----|-17----18----|
|-----------------|---------------------|-------------|-------------|
|
|  H     Q.   S S    H     Q  +S  S S S    H     H       H     H
|-----------------|---------------------|-------------|-------------|
|-----------------|---------------------|-------------|-------------|
|--------0----2-4-|--5------------------|--------9----|-------------|
|--2--------------|--------5--(5)-5-5-7-|-10----------|--9-----9----|


   Outro
    Em    A           D     G               C     F#      Bm      B
     H     H           H     H               H     H       H       H     3x
||------------------|-14------------------|-12----------|----------------||
||o-17----17--------|-15----15------------|-13----14----|-15------16----o||
||--16----18--------|-14----16------------|-12----15----|-16------16-----||
||--17----19--------|-16----17------------|-14----16----|-16------16-----||
||o-19----19--------|-------17------------|-------16----|-17------18----o||
||------------------|---------------------|-------------|----------------||
|
|    H     Q.   S S    H     Q  +S  S S S    H     H       Q.   E  H     3x
||------------------|---------------------|-------------|----------------||
||o--2--------------|---------------------|-------------|---------------o||
||o--------0----2-4-|--5------------------|-------------|--2-------2----o||
||------------------|--------5--(5)-5-7-9-|-10-----4----|-------0--------||


                            Free Time
                Q=50         H.=H
  Em    A       Bm           Em    F#
   <             >
   H     H       W            H     H
|-------------|-22--------||-12----14----:
|-17----17----|-19--------||-12----14----:
|-16----18----|-19--------||--9----11----:
|-17----19----|-19--------||--9----11----:
|-19----19----|-21--------||--7-----9----:
|-------------|-----------||-------------:
|
|  H     H       W            W
|-------------|-----------||-------------:
|--2----------|--0--------||-------------:
|--------0----|-----------||-------------:
|-------------|-----------||-------------:


             Bm
    Q    +E   E  +H        +W            +W            +W
|-(14)--(14)-10-(10)----:-(10)--------:-(10)--------:-(10)----*|
|--11---(11)-12-(12)----:-(12)--------:-(12)--------:-(12)----*|
|-(11)--(11)-11-(11)----:-(11)--------:-(11)--------:-(11)----*|
|-(11)--(11)-12-(12)----:-(12)--------:-(12)--------:-(12)----*|
|--(9)---(9)-14-(14)----:-(14)--------:-(14)--------:-(14)----*|
|-----------------------:-------------:-------------:---------*|
|
|   W                       W             W             W
|-----------------------:-------------:-------------:---------*|
|-----------------------:-------------:-------------:---------*|
|-----------------------:-------------:-------------:---------*|
|-----------------------:-------------:-------------:---------*|



Duration Legend
---------------
W - whole; H - half; Q - quarter; E - 8th; S - 16th; T - 32nd; X - 64th; a - acciaccatura
+ - note tied to previous; . - note dotted; .. - note double dotted
Uncapitalized letters represent notes that are staccato (1/2 duration)
Irregular groupings are notated above the duration line
Duration letters will always appear directly above the note/fret number it represents the
duration for.  Duration letters with no fret number below them represent rests.  Multi-
bar rests are notated in the form Wxn, where n is the number of bars to rest for.  Low
melody durations appear below the staff

Tablature Legend
----------------
 h   - hammer-on
 p   - pull-off
 b   - bend
 pb  - pre-bend
 r   - bend release (if no number after the r, then release immediately)
 /\  - slide into or out of (from/to "nowhere")
 s   - legato slide
 S   - shift slide
 - natural harmonic
[n]  - artificial harmonic
n(n) - tapped harmonic
 ~   - vibrato
 tr  - trill
 T   - tap
 TP  - trem. picking
 PM  - palm muting
\n/  - tremolo bar dip; n = amount to dip
 \n  - tremolo bar down
 n/  - tremolo bar up
/n\  - tremolo bar inverted dip
 =   - hold bend; also acts as connecting device for hammers/pulls
 <> - volume swell (louder/softer)
 x   - on rhythm slash represents muted slash
 o   - on rhythm slash represents single note slash

Misc Legend
-----------
 |  - bar
||  - double bar
||o - repeat start
o|| - repeat end
*|  - double bar (ending)
 :  - bar (freetime)
 $  - Segno
 &  - Coda
Tempo markers -  = BPM(8/16=s8/s16), where s8 = swing 8ths, s16 = swing 16ths
            
Tabs too difficult? Try these video lessons and learn fast.




comments powered by Disqus
↑ Back to top | Tablatures and chords are parodies/interpretations of the original songs. You may use it for private study, scholarship, research or language learning purposes only