» » »

The Nerdy Bunch Tabs (ver.1)

Artists:  A B C D E F G H I J K L M N O P Q R S T U V W X Y Z # 

The Nerdy Bunch Tabs (ver.1)

Rb32
Rating:
0/5 (0 votes)
Tabs too difficult? Try these video lessons and learn fast.
                rb32
"the nerdy bunch"
off `the nerdy bunch`


[]----------------------------------------------
[]----------------------------------------------
[]----------------------------------------------
[]--9-9-7-7-----7-6-10-8-10--11h-12p----------0-
[]-------------------------------------12-10----
[]----------------------------------------------


[]-------------------------
[]--11-12-11-12------------11
[]--------------12---10-10--
[]---------------------------
[]----------------------------
[]---------------------------


ending

[]-------------------------------------------------------
[]-------------------------------------------------------
[]-8-9-10-10-8-7-8---8-8-8-8-----7-8-8-9-8---9-10-10-9---
[]-------------------------------------------------------
[]-------------------------------------------------------
[]-------------------------------------------------------

and thats the way they became the nerdy bunch!
            
Tabs too difficult? Try these video lessons and learn fast.


comments powered by Disqus
↑ Back to top | Tablatures and chords are parodies/interpretations of the original songs. You may use it for private study, scholarship, research or language learning purposes only