» » »

Brandy Bass tabs (ver.1)

Artists:  A B C D E F G H I J K L M N O P Q R S T U V W X Y Z # 

Brandy Bass tabs (ver.1)

Red Hot Chili Peppers
Rating:
0/5 (0 votes)

Tabs too difficult? Try these video lessons and learn fast.
                ----------------------------------------------------------------------------
			  Brandy - Red Hot Chili Peppers
----------------------------------------------------------------------------


Tuning:

I was waiting for someone to tab this out, but got bored of waiting so i did it myself! 

Intro x1
G|-----6-4-----------------------|-----6-4----9-8-6---------|
D|---------7--7-7-7-6-6-4--------|---------7--------7-6-----|
A|-4-4--------------------6------|----------------------9-7-|
E|-------------------------------|-4-4----------------------|

G|--------------------|
D|--------------------|
A|--------------------|
E|-7-7-7-7-7-7-7-7----|

G|---9--------------------|
D|-7---7-6-6-----6-7-9--9-|
A|------------9-----------|
E|------------------------|

Verse x2
G|-----------------------|-----------------|
D|--------6---6-----6----|-----------------|
A|--7---7--------9-------|---9-7---0---5---|
E|---------------------9-|-9-----9------5--|

G|-----------------------|----------------------------|
D|--------6---6-----6----|-----------------------9/7--|
A|--7---7--------9-------|---9-7---0--0--7-7-9/7------|
E|---------------------9-|-9--------------------------|
Some Variation

Chorus x1
G|------6-4--------------------|-----6-4---9-8-6---------|
D|----------7--7-7-7-7-6-6-4---|---------7-------7-6-----|
A|-4-4-----------------------6-|-4-4-----------------9---|
E|-----------------------------|-------------------------|

G|-----------------|
D|-----------------|
A|-----------------|
E|-7-7-7-7-7-7-7-7-|

G|---9--------------------|
D|-7---7-6-6-----6-7-9--9-|
A|------------9-----------|
E|------------------------|
Some more variation

Repeat the verse (x2)
Then repeat the chorus (x1)

Interlude
G|-------------------------------------------4/6-4--------|
D|-------------------------------2-------6-4--------6-4---|
A|--4-4--4-4-4--2-2-2-2--2--0--0----0--2----------------0-|
E|--------------------------------------------------------|

G|----------------------------------------------|
D|----------------------------------------------|
A|--4-4--4-4-4--2-2-2-2--2--0--0-0--0-2-2-2-2-2-|
E|----------------------------------------------|

G|------------------------------------------------|
D|------------------------------------------------|
A|--4-4--4-4-4--5--5-5-5-5--4--4-4--4--0--0-0-0-0-|
E|------------------------------------------------|

G|-----------------|
D|-----------------|
A|-----------------|
E|-7-7-7-7-7-7-7-7-|

G|---9--------------------|
D|-7---7-6-6-----6-7-9--9-|
A|------------9-----------|
E|------------------------|

repeat Verse (x1)
Repeat Chorus (x2)

G|---9--------------------|
D|-7---7-6-6-----6-7-9--9-|
A|------------9-----------|
E|------------------------|

G|---9----------------------|
D|-7---7-6-6-----6-7-9--9-9-|
A|------------9-------------|
E|--------------------------|

End On
G|----|
D|----|
A|----|
E|-0--|

Any questions or comments E-Mail me, mt E-Mail address is at the top. please rate!
Enjoy the tab!!

| /  slide up
| \  slide down
| h  hammer-on
| p  pull-off
| ~  vibrato
| +  harmonic
| x  Mute note
            
Tabs too difficult? Try these video lessons and learn fast.


comments powered by Disqus
↑ Back to top | Tablatures and chords are parodies/interpretations of the original songs. You may use it for private study, scholarship, research or language learning purposes only