» » »

Brothers Cup Bass tabs (ver.4)

Artists:  A B C D E F G H I J K L M N O P Q R S T U V W X Y Z # 

Brothers Cup Bass tabs (ver.4)

Red Hot Chili Peppers
Rating:
0/5 (0 votes)

Tabs too difficult? Try these video lessons and learn fast.
                
Tuning: Drop D


Intro/ Verses
G|-----------------------3-3---------------------------------------------------------|
D|---------------------------5--------------3----5-3-6-5-3---------------------------|
A|5--3-2-3-3-0-5-R-5-3-2---------5-3-2-3-3-0---------------5-------------------------|
D|-----------------------------------------------------------------------------------|


Chorus
G|---------------------------------------------------------------------------|
D|---------------------------------------------------------------------------|
A|5-3-1-------5-3-1-3-3-1---5-3-1-------5-3-1-3-3-1--------------------------|
D|------5-3-5-------------5-------5-3-5--------------------------------------|

Riff 2 (when the little kids start talking after the chorus)
G|---------------------------------------------------------------------------|
D|---------------------------------------------------------------------------|
A|---------------------------------------------------------------------------|
D|0-0000-00------------------------------------------------------------------|

Riff 3
G|---------------------------------------------------------------------------|
D|---------------------------------------------------------------------------|
A|---------------------------------------------------------------------------|
D|0-0000-00 x-3-x-5-0-0000-00-x-3-x-2----------------------------------------|

Then this tranfers into the main riff
G|---------------------------------------------------------------------------|
D|---------------------------------------------------------------------------|
A|0000-0000-/12\-------------------------------------------------------------|
D|---------------------------------------------------------------------------|

Outro
G|---------------------------------------------------------------------------|
D|2--------------------------------------------------------------------------|
A|---------------------------------------------------------------------------|
D|---------------------------------------------------------------------------|

Song Order:
Intro x 1
Verse x 5
Chorus x 1
Verse x 2
Bridge
Verse x 1
Chrous x 1
Riff 2 x 8
Riff 3 x 4
Transfer Part x 1
Verse x 2
Another Bridge Part
Verse x 1
Chorus x 2
Outro and fade


| /  slide up
| \  slide down
| h  hammer-on
| p  pull-off
| ~  vibrato
| +  harmonic
| x  Mute note
===============================================================================

Thank you. If you see any corrections that need to be made, just contact me via email or
at PurgatoryRD13. Peace.
            
Tabs too difficult? Try these video lessons and learn fast.




comments powered by Disqus
↑ Back to top | Tablatures and chords are parodies/interpretations of the original songs. You may use it for private study, scholarship, research or language learning purposes only