» » »

Did I Let You Know Tabs (ver.1)

Artists:  A B C D E F G H I J K L M N O P Q R S T U V W X Y Z # 

Did I Let You Know Tabs (ver.1)

Red Hot Chili Peppers
Rating:
0/5 (0 votes)
Tabs too difficult? Try these video lessons and learn fast.
                -------------------------------------------------------------------------------
-------------------------------------------------------------------------------


Tuning: Standard

The album isn't out yet, I've worked it all out except for the trumpet solo (bridge?),
I'll probably keep working at it but any corrections would be appreciated. I believe the
song is in G Minor.




Intro\Verse:

      Cm9                                Bb
e|----10~---------8-10-8-----13\10--10---------------------------------------|
B|-----8~------11--------11--------------6~-6-6-6-6-6------------------------|
G|-----8~--------------------------------7~-7h8-8-8p7------------------------|
D|----10~--------------------------------8~-8-8-8-8-8------------------------|
A|-----x---------------------------------------------------------------------|
E|-----8---------------------------------6----------6------------------------|
       T                                 T          T

Chorus:

     F              Gm
e|-----------------------------------------|
B|---1--1--1--------3--3--3----------------|
G|---2--2--2--------3--3--3----------------| 
D|---3--3--3--------5--5--5----------------|   x2  
A|---3--3--3--------5--5--5----------------|
E|---1--1--1--------3--3--3----------------|
 
    Bbm          Cm          Gm          Gm
e|---------------------------------------------------------------------------|
B|--2--2--2------4--4--4------3--3--3-----3--3--3----------------------------|
G|--3--3--3------5--5--5------3--3--3-----3--3--3----------------------------|
D|--3--3--3------5--5--5------5--5--5-----5--5--5----------------------------|
A|--1--1--1------3--3--3------5--5--5-----5--5--5----------------------------|
E|----------------------------3--3--3-----3--3--3----------------------------|


Verse: (With Variations

      Cm9                                   Bb
e|----10~---------8-10-8-----13\10---13\10-----------------------------------|
B|-----8~------11--------11-----------------6~-6-6-6-6-6---------------------|
G|-----8~-----------------------------------7~-7h8-8-8p7---------------------|
D|----10~-----------------------------------8~-8-8-8-8-8---------------------|
A|-----x---------------------------------------------------------------------|
E|-----8------------------------------------6----------6---------------------|
       T                                    T          T

That's about it for now, should be enough for you to play along with


cheers



************************************
| T   Thumb
| /   slide up
| \   slide down
| h   hammer-on
| p   pull-off
| ~   vibrato
| +   harmonic
| x   Mute note
| b   Bend
| pb  Pre-bend
| br  Bend release
| pbr Pre-bend release
| brb Bend release bend

************************************
            
Tabs too difficult? Try these video lessons and learn fast.


comments powered by Disqus
↑ Back to top | Tablatures and chords are parodies/interpretations of the original songs. You may use it for private study, scholarship, research or language learning purposes only