» » »

Ethiopia Tabs (ver.3)

Artists:  A B C D E F G H I J K L M N O P Q R S T U V W X Y Z # 

Ethiopia Tabs (ver.3)

Red Hot Chili Peppers
Rating:
0/5 (0 votes)
Tabs too difficult? Try these video lessons and learn fast.
                guitar

INTRO
--5--5--5--5--5--5--5-|
----------------------|
----------------------| x2
----------------------|
----------------------|


VERSE
Guitar part 1
------------------------------|
-55----5------55---5----------|
-----7----55-----7---55-------|
------------------------------|
------------------------------|
------------------------------|

-----------------------|
-----------------------|
-----(5)5-----(5)5-----|
--5h7------5h7---------|
-----------------------|
-----------------------|

Guitar part 2:
(appears first in verse 2)
POLY RHYTHM - bass and drums are in 7, guitar is in 2 (or 4)
  1      2      3      4
--12-12---------12-12---------|
--13-13---------13-13---------|
--14-14---------14-14---------|
------------------------------|
------------------------------|
------------------------------|

and still ending with
-----------------------|
-----------------------|
-----(5)5-----(5)5-----|
--5h7------5h7---------|
-----------------------|
-----------------------|


CHORUS
Am7           G        F
Tell me boy I love him so
Am7            D
Tell him so he knows
Am7         G  F
Lost in Ethiopia
Am7              D
Walk out in that road



BRIDGE:
GUITAR PART 1:
-7~~~~~~~~~~--
-10~~~~~~~~~--
-7~~~~~~~~~~--
-9~~~~~~~~~~--
-7~~~~~~~~~~--
--------------

GUITAR PART 2:
-----------------|
-----------------|
-----------------|
-----------5-----|
--7-5-7-55---7-7-|
-----------------|


SOLO #1:
-----------------------------------------------------------|
-----------------------------------------------------------|
---------------------7^10^7--5---5-------------------------|
----5--------7-10-7-----------/7-----5---------------------|
--5---7--10-----------------------/7---7---3/5/3-----------|
-------------------------------------------------5---------|

SOLO #2:
--------------|
--------------|
--------------|
-----5-----5--| repeat lick repeatively in poly rhythm.
-5h7---5h7----| Yay triplets over 7!
--------------| Josh is cool.



OUTRO:
--5--5--5--5--5--5--5-|
----------------------|
----------------------|
----------------------|
----------------------|
----------------------|

and outro chord:
--X-------------------|
--9-------------------|
--8-------------------|
--9-------------------|
-(7)------------------|
----------------------|

it also very lightly does the solo 2 lick over and over, very very quietly.
            
Tabs too difficult? Try these video lessons and learn fast.


comments powered by Disqus
↑ Back to top | Tablatures and chords are parodies/interpretations of the original songs. You may use it for private study, scholarship, research or language learning purposes only