» » »

Fight Like A Brave Bass tabs (ver.4)

Artists:  A B C D E F G H I J K L M N O P Q R S T U V W X Y Z # 

Fight Like A Brave Bass tabs (ver.4)

Red Hot Chili Peppers
Rating:
0/5 (0 votes)
Tabs too difficult? Try these video lessons and learn fast.
                Hello, This song never has a good, strong tab. So I decided to tab it out.

S= Slap
P= Pop

Fight Like a Brave

Main Slap Riff  (Play Four Times)
G[-----------5---6-------------5----6-------------5----6------------------]
D[-----7-----7---7-------7-----7----7--------7----7----7------7-----7p5---]
A[-----------------------------------------------------------------------5]
E[-5-x---x-x--x-x----5-x---x-x---x-x-x---5-x---x-x--x-x----5-x--x-x----3--]
   s s p s s ps sp   s s p s s p s sps   s s p s sp s sp   s sp s s p  s p  


G[---------------------------------------------------------------------]
D[-----9---997-----------9--997----------9---997-------------9---------]
A[------------97---------------97---------------97--------------3----5-]
E[-7-------------8---7------------8--7-------------8----7--------3--5--]

___________________________________________________________________________
                      Repeat everything above this line.


Bass Solo  (also play this for the whole guitar solo)
G[---------7---------------7---------------------]
D[---6-----------7---6-----------7-----7-----7---]
A[-----7---------------7-----------5-----4-----4-]
E[-0-----0---0-0---x-----0---0-0-----0-----0-----]
   s p s s p s s p s p s s p s s p s s p s s p s

Main Slap Riff  (Play Four Times)
G[-----------5---6-------------5----6-------------5----6------------------]
D[-----7-----7---7-------7-----7----7--------7----7----7------7-----7p5---]
A[-----------------------------------------------------------------------5]
E[-5-x---x-x--x-x----5-x---x-x---x-x-x---5-x---x-x--x-x----5-x--x-x----3--]
   s s p s s ps sp   s s p s s p s sps   s s p s sp s sp   s sp s s p  s p  


Play this till it fades out.
G[---------------------------------------------------------------------]
D[-----9---997-----------9--997----------9---997-------------9---------]
A[------------97---------------97---------------97--------------3----5-]
E[-7-------------8---7------------8--7-------------8----7--------3--5--]


Good luck learning the song, if you are having trouble finding a
tab, I will try to tab the song out for you.
            
Tabs too difficult? Try these video lessons and learn fast.


comments powered by Disqus
↑ Back to top | Tablatures and chords are parodies/interpretations of the original songs. You may use it for private study, scholarship, research or language learning purposes only