» » »

Foxy Lady Bass tabs (ver.1)

Artists:  A B C D E F G H I J K L M N O P Q R S T U V W X Y Z # 

Foxy Lady Bass tabs (ver.1)

Red Hot Chili Peppers
Rating:
0/5 (0 votes)

Tabs too difficult? Try these video lessons and learn fast.
                (Live)
“Foxy Lady” by the Red Hot Chili Peppers
Originally by the Jimi Hendrix Experience
Bass part by Michael Balzary (Flea)
Visit UtBDan's band at:

VERSE:
G------------------------------|
D-----4------4------4--------0-|
A----------------------0-2-4---|
E-2-2----2-2----2-2------------|

CHORUS:
G-------------------4----2--|
D-4444-4444-2222------------|
A-----------------02---02---|
E---------------------------|

G-------------------4----2--|
D-4444-4444-2222------------|
A-----------------02---02---|
E---------------------------|

G------|
D-3-4--|
A------|
E------|

REGGAE BREAK:
G----66-7-9--|
D-77---------|
A------------|
E------------|

G---99-7---|
D-7------7-|
A----------|
E----------|

Repeat over and over until Hillel starts soloing again.

Note Hillel is on vocals and not AK in this. Why? I don’t know. BUT I LOVE IT!
            
Tabs too difficult? Try these video lessons and learn fast.




comments powered by Disqus
↑ Back to top | Tablatures and chords are parodies/interpretations of the original songs. You may use it for private study, scholarship, research or language learning purposes only