» » »

Funky Monks Bass tabs (ver.2)

Artists:  A B C D E F G H I J K L M N O P Q R S T U V W X Y Z # 

Funky Monks Bass tabs (ver.2)

Red Hot Chili Peppers
Rating:
0/5 (0 votes)

Tabs too difficult? Try these video lessons and learn fast.
                ----------------------------------------------------------------------------
		    FUNKY MONKS - Red Hot Chili Peppers
----------------------------------------------------------------------------


Tuning: Drop D

**4-String Adapted Verison**

Verse:
G|---| Play 5th fret
D|---| on the D string
A|---| until ...
D|-5-|

G|-----------| Heading into 
D|-----------| the chorus
A|-----------| play ...
D|-0h3p0h3p0-|

G|---------------|
D|---------------|
A|---------------|
D|-5-5-3-3-2-2-0-|

Chorus:
G|-------------------------------|
D|-------------------------------|
A|-------------------------------|
D|-7-7-5-5-3-3-2-3-3-3-3-2-2-3-5-|

G|-----------------------------------|
D|-----------------------------------|
A|---------------------------3-3-2-2-|
D|-7-7-5-5-3-3-2-3-3-3-3-2-2---------|

G|-------------------------------|
D|-------------------------------|
A|-------------------------------|
D|-7-7-5-5-3-3-2-3-3-3-3-2-2-3-5-|

G|-------------------------------------|
D|-------------------------------------|
A|-----------------------6-5-3-5-3-----|
D|-7-7-5-5-3-3-2-3-3-3-3-----------5-7-|

Bridge:
G|-----2-1-2-----2-1-----2-1-2-------|
D|-----------------------------3-2-0-|
A|-0h2-------0h2-----0h2-------------|
D|-----------------------------------|

G|-----2-1-2-----2-1-----2-1-2-------------|
D|-----------------------------0h1h2p0-3-2-|
A|-0h2-------0h2-----0h2-------------------|
D|-----------------------------------------|

G|-----2-1-2-----2-1-----2-1-2-------|
D|-----------------------------3-2-0-|
A|-0h2-------0h2-----0h2-------------|
D|-----------------------------------|

G|-----2-1-2-----2-1-----2-1-2-------|
D|-----------------------------3-2-0-|
A|-0h2-------0h2-----0h2-------------|
D|-----------------------------------|

Bridge #2:
G|--------------------------------|
D|--------------------------------|
A|-----3-2-3-----32-----323-------|
D|-0h3-------0h3----0h3-----6-5-3-|

Sorry but I don't have the 3rd Bridge/Solo yet. I'll get it ASAP.

| /  slide up
| \  slide down
| h  hammer-on
| p  pull-off
| ~  vibrato
| +  harmonic
| x  Mute note
============================================================================
            
Tabs too difficult? Try these video lessons and learn fast.


comments powered by Disqus
↑ Back to top | Tablatures and chords are parodies/interpretations of the original songs. You may use it for private study, scholarship, research or language learning purposes only