» » »

Get Up Bass tabs (ver.1)

Artists:  A B C D E F G H I J K L M N O P Q R S T U V W X Y Z # 

Get Up Bass tabs (ver.1)

R.E.M.
Rating:
0/5 (0 votes)
Tabs too difficult? Try these video lessons and learn fast.
                Intro
  1   +   2   +   3   +   4   +    1   +   2   +   3   +   4   +   
G|--------------------------------|--------------------------------|
D|2---2---------------------------|--------7-6---4-----------------|
A|--------2---2-----0-2-3---------|------------------7---5---4-2-0-|
E|----------------3-------3-----3-|5-------------------------------|

G|--------------------------------|--------------------------------|
D|2---2---------------------------|--------------------5-6---8-----|
A|--------2---2-----0-2-3---------|----------------6-8-------------|
E|----------------3-------3-----3-|6---6---6---6-------------------|


Verse 1
  1   +   2   +   3   +   4   +    1   +   2   +   3   +   4   +   
G|--------------------2-2---------|--------------------7-7---------|
D|--------------------------------|0-0-----0-0-----0-0-----0-3-0---|
A|0-0-----0-0-----0-0-----0-0-2-0-|------------------------------2-|
E|--------------------------------|--------------------------------|

G|------------9-9-----2-2---------|--------------------7-7---------|
D|--------------------------------|0-0-----0-0-----0-0-----0-3-0---|
A|0-0-----0-0-----0-0-----0-0-2-0-|------------------------------2-|
E|--------------------------------|--------------------------------|

G|------------9-9-----2-2---------|--------------------7-7---------|
D|--------------------------------|0-0-----0-0-----0-0-----0-3-0---|
A|0-0-----0-0-----0-0-----0-0-2-0-|------------------------------2-|
E|--------------------------------|--------------------------------|

G|------------9-9-----2-2---------|--------------------------------|
D|--------------------------------|0-0-----0-0-----0-0-0-0-0-------|
A|0-0-----0-0-----0-0-----0-0-2-0-|--------------------------4-5-6-|
E|--------------------------------|--------------------------------|


Chorus 1
  1   +   2   +   3   +   4   +    1   +   2   +   3   +   4   +   
G|--------------------------------|--------------------------------|
D|--------------------------------|--------7-6---4-----------------|
A|7---7-------------0-2-3---------|------------------7---5---4-2-0-|
E|--------7---7---3-------3-----3-|5-------------------------------|

G|--------------------------------|--------------------------------|
D|2---2---------------------------|--------------------5-6---8-----|
A|--------2---2-----0-2-3---------|----------------6-8-------------|
E|----------------3-------3-----3-|6---6---6---6-------------------|


Verse 2
  1   +   2   +   3   +   4   +    1   +   2   +   3   +   4   +   
G|--------------------2-2---------|--------------------7-7---------|
D|--------------------------------|0-0-----0-0-----0-0-----0-3-0---|
A|0-0-----0-0-----0-0-----0-0-2-0-|------------------------------2-|
E|--------------------------------|--------------------------------|

G|------------9-9-----2-2---------|--------------------7-7---------|
D|--------------------------------|0-0-----0-0-----0-0-----0-3-0---|
A|0-0-----0-0-----0-0-----0-0-2-0-|------------------------------2-|
E|--------------------------------|--------------------------------|

G|------------9-9-----2-2---------|--------------------7-7---------|
D|--------------------------------|0-0-----0-0-----0-0-----0-3-0---|
A|0-0-----0-0-----0-0-----0-0-2-0-|------------------------------2-|
E|--------------------------------|--------------------------------|

G|------------9-9-----2-2---------|--------------------------------|
D|--------------------------------|0-0-----0-0-----0-0-0-0-0-------|
A|0-0-----0-0-----0-0-----0-0-2-0-|--------------------------4-5-6-|
E|--------------------------------|--------------------------------|


Chorus 2
  1   +   2   +   3   +   4   +    1   +   2   +   3   +   4   +   
G|--------------------------------|--------------------------------|
D|--------------------------------|--------7-6---4-----------------|
A|7---7-------------0-2-3---------|------------------7---5---4-2-0-|
E|--------7---7---3-------3-----3-|5-------------------------------|

G|--------------------------------|--------------------------------|
D|2---2---------------------------|--------------------5-6---8-----|
A|--------2---2-----0-2-3---------|----------------6-8-------------|
E|----------------3-------3-----3-|6---6---6---6-------------------|


Pause
Do D String Up-and-down Slide


Chorus 3 + Outro
  1   +   2   +   3   +   4   +    1   +   2   +   3   +   4   +   
G|--------------------------------|--------------------------------|
D|2---2---------------------------|--------7-6---4-----------------|
A|--------2---2-----0-2-3---------|------------------7---5---4-2-0-|
E|----------------3-------3-----3-|5-------------------------------|

G|--------------------------------|--------------------------------|
D|2---2---------------------------|--------------------5-6---8-----|
A|--------2---2-----0-2-3---------|----------------6-8-------------|
E|----------------3-------3-----3-|6-6-6-6-6-6-6-6-----------------|

G|--------------------------------|--------------------------------|
D|--------------------5-6---8-----|----------------5-----6---8-----|
A|----------------6-8-------------|------------6-8-----------------|
E|6-6-6-6-6-6-6-6-----------------|6-6-6-6-6-6---------------------|

G|--------------------------------|--------------------------------|
D|----------8-----8-------8-------|7-------------------------------|
A|--------8-----8-------8---------|--------------------------------|
E|6-------------------------------|--------------------------------|
            
Tabs too difficult? Try these video lessons and learn fast.


comments powered by Disqus
↑ Back to top | Tablatures and chords are parodies/interpretations of the original songs. You may use it for private study, scholarship, research or language learning purposes only