» » »

Oh My Heart Bass tabs (ver.1)

Artists:  A B C D E F G H I J K L M N O P Q R S T U V W X Y Z # 

Oh My Heart Bass tabs (ver.1)

R.E.M.
Rating:
0/5 (0 votes)

Tabs too difficult? Try these video lessons and learn fast.
                -------------------------------------------------------------------------------
                             Oh My Heart - REM
-------------------------------------------------------------------------------

  ( Intro ) Horns                     
G|----------------------|
D|----------------------|
A|----------------------|
E|----------------------|
        
 The kids have a new take
G|---------------------------------------------------------------------|
D|-------2-3---3-32-------2----------------2-3---3-32-------2----------|
A|-7-5-3------3-----7-5-3---5--5--53-7-5-3------3-----7-5-3---5--5--53-|
E|----------------------------5---------------------------------5------|

  This place
G|----------------------------------------------------------------------|
D|---23-5-------------23-5-------------23-5-------------23-5------------|
A|-3------53-5-55-5-3------53-5-55-5-3------53-5-55-5-3------53-5-55-5--|
E|----------------------------------------------------------------------|

  The storm didn't kill me
G|---------------------------------------------------------------------|
D|-------2-3---3-32-------2----------------2-3---3-32------------------|
A|-7-5-3------3-----7-5-3---5--5--53-7-5-3------3-----7-5-3-7-8-10-8-7-|
E|----------------------------5----------------------------------------|   

  It's sweet and it's sad
G|-------------------------------------------------------------------------|
D|---23-5--------------23-5--------------23-5--------------23-5------------|
A|-3------5-3-5-55-5-3------5-3-5-55-5-3------5-3-5-55-5-3------5-3-5-55-5-|
E|-------------------------------------------------------------------------|

  ( interlude )              Mother and Father
G|--------------------------|---------------------------|-------------------|
D|-8--7--7--5--8--7--6------|---------------------------|-------2-3---3--32-|
A|--------------------------|---------------------------|-7-5-3------3------|
E|--------------------------|---------------------------|-------------------|

  This place is the beat
G|------------------|-----------------------------------------------------|
D|------------------|---23-5--------------23-5------------23-5------------|
A|-7-5-3-7-8-10-8-7-|-3------5-3-5-55-5-3------5-3-5-55-3------5-3-5-55-5-|
E|------------------|-----------------------------------------------------|

  ( Outro )
G|---------------------|
D|---23-5------------2-|
A|-3------5-3-5-55-5---|
E|---------------------|
            
Tabs too difficult? Try these video lessons and learn fast.




comments powered by Disqus
↑ Back to top | Tablatures and chords are parodies/interpretations of the original songs. You may use it for private study, scholarship, research or language learning purposes only