» » »

Bad Case Of Loving You Tabs (ver.3)

Artists:  A B C D E F G H I J K L M N O P Q R S T U V W X Y Z # 

Bad Case Of Loving You Tabs (ver.3)

Robert Palmer
Rating:
0/5 (0 votes)

Tabs too difficult? Try these video lessons and learn fast.
                This is the little solo right after the bending/ of the 17th fret and maneuvering two
15th fret of the b string, the 16th fret of the G string and then again tot he 10th fret
the  b string.... haha ill just show you

After the chorus of "Bad Caaaaaaase Of Looooooving Yooou!"

e:---------------------------------------------------------------|
b:--17~-17-17-15----17~--17~-17-17-15----17~--17~-17-17-15--12~--|
g:---------------16-------------------16------------------16-----|
d:---------------------------------------------------------------|
a:---------------------------------------------------------------|
e:---------------------------------------------------------------|


now for the solo piece... by Bending, bend the 12th note till it sounds like the 14th.
may not be 100% accurate, but its in key pretty much to the actual thing, its good enough
recognize it.


e:----10-12b-10-------------12-------------10-12b-12-10-----------------|
b:-12-----------12-10-12-12b--12b-12-10-12--------------12-10-12-11-10~-|
g:----------------------------------------------------------------------|
d:----------------------------------------------------------------------|
a:----------------------------------------------------------------------|
e:----------------------------------------------------------------------|


alrighty that should do it, just a simple tab.....surprised there wasnt one before, but
any robert palmer fans out there see this tab, and play it, finding a missing note, or
down by ear so no paperwork was in front of me dont kill me if its wrong, but it sounds
enough to the real thing



Enjoy

R.I.P Robert Palmer.
            
Tabs too difficult? Try these video lessons and learn fast.




comments powered by Disqus
↑ Back to top | Tablatures and chords are parodies/interpretations of the original songs. You may use it for private study, scholarship, research or language learning purposes only