» » »

Enchanter Tabs (ver.1)

Artists:  A B C D E F G H I J K L M N O P Q R S T U V W X Y Z # 

Enchanter Tabs (ver.1)

Robert Plant
Rating:
4/5 (2 votes)

Tabs too difficult? Try these video lessons and learn fast.
                Robert Plant and Strange Sensation
The Mighty Rearranger

01/26/2012 - I've just redone this song and fixed what I believe are any errors.  
In addition, I've added the two guitar solos.

DROPPED D TUNING---DADGBE

Intro:


E|---------------------------------------------|
B|---------------------------------------------|
G|---------------------------------------------|
D|------0-3b--0---0---0-----0---3p0-----0---0--|
A|--0h3---------3-------3p0---------3p0--------|
D|------------------0---------0-----------0----|

E|----------------------------|
B|----------------------------|
G|-----------0----------------|
D|------0-3b---3b-0-----------|
A|--0h3-----------------------|
D|----------------------------|

That's pretty much the intro with little fills that go
Something along these lines:

|--------------------------------|
|--3—1h3--3----4p3h4p3/1---3-----|
|------------------------2-------|
|--------------------------------|
|--------------------------------|
|--------------------------------|

(The verse is basically the same as the intro with the same fills)

She moves through the mountains and down to the sea
She sings in celebration with her piper for me
She's leading the man who's beating the drum
Love is all around her on the road to the sun
Round, round, moving me round
Round, round the air

She's lost in conversation with the birds of the air
She's trading information in a world without fear
She's fixing up a potion made of laughter and love
And I will follow the enchanter on the road to the sun


Pre-chorus (first time only):

"Round, round.." part before chorus:
|-----------------------------------|
|-----------------------------------|
|-----------------------------------|
|-----------------------------------|
|-1-1-0-----1-1-0-------------------|
|-1-1-0-----1-1-0-------------------|

Chorus: (strum accordingly)

"Oh that the stars..."                            Next verse
|----------------------------------------------------------------|
|----------------------------------------------------------------|
|----------------------------------------------------------------|
|----------------------------------------------------3b-0---0----|
|-5555-3333-11-000000--5555-3333-77777777777777---0h3-----3------|
|-5555-3333-11-000000--5555-3333-77777777777777------------------|


She's studying the planets and she's searching for signs
Her eyes promise mystery and her treasure to find 
She's mixing my emotions it's so easily done
In a league with the enchanter on the road to the sun


Chorus (2nd time through)

|-----------------------------------------------|
|-----------------------------------------------|
|-----------------------------------------------|
|-----------------------------------------------|
|-5555-3333-11-000000--5555-3333-11-000000------|
|-5555-3333-11-000000--5555-3333-11-000000------|

|-------------------------|
|-------------------------|
|-------------------------|
|-------------------------|
|-5555-3333-77777777------|
|-5555-3333-77777777------|

Solo: over the verse riff (x2)
e|--------------------------------------------------------------------|
B|-3h4p3/1------------------------------------------------------------|
G|---------3-2-0------------------------------------------------------|
D|---------------3-1-0---0h1p0h1p0----0h1p0h1p0-—0h1p0h1p0h1p0----0---|
A|---------------------3----------3-0-----------3--------------3p0----|
D|--------------------------------------------------------------------|

Slide guitar solo: over the chorus riff
e|--------------------------------------------------------------|
B|-1/3-4/6\3-3/8-/6 6/4-4/3-3----3/4-4/6\3—6/10-10-10\8-8\7-----|
G|--------------------------------------------------------------|
D|--------------------------------------------------------------|
A|--------------------------------------------------------------|
E|--------------------------------------------------------------|

e|------------------------------------------------------------|
B|-1/3-4/6\3-3/8-6/8\6-4/6\4-3/4/3-3---/15-15-15\--/17-17-17--|
G|------------------------------------------------------------|
D|------------------------------------------------------------|
A|------------------------------------------------------------|
E|------------------------------------------------------------|

She moves through the mountains and down to the sea
She sings in celebration with her piper for free
She's leading the man who's beating the drum
And love is all around her on the road to the sun
            
Tabs too difficult? Try these video lessons and learn fast.




comments powered by Disqus
↑ Back to top | Tablatures and chords are parodies/interpretations of the original songs. You may use it for private study, scholarship, research or language learning purposes only