>
 >
Goldfield

Goldfield Guitar Tabs

Rocky Votolato - Goldfield chords, tabs, tablatures, lyrics

Guitar lessons | Add/correct | Request | Top 50 tabs Artists:  A B C D E F G H I J K L M N O P Q R S T U V W X Y Z 0-9

Goldfield Guitar Tabs – Rocky Votolato

CD, Sheet music, Poster

Do you like Goldfield? Share with your friends now
ChordsTabsUkulele
Rocky Votolato

Anyhow, on with things-- Rocky uses a capo on 2nd fret.



Verse, Chorus (C, G, Am, F)
"Car 50-32 of the Union Pacific..."
"You've arrived in Goldfield..."

    c     G     Am    F
e|--0-----1-----0-----0----|
B|--1-----0-----1-----1----|
G|--0-----0-----2-----0h2--|
D|--0h2---0-----2-----3----|
A|--3-----0h2---0-----3----|
E|--------3-----------1----|

Obviously, he doesn't nail the hammer-on each time-- you'll have to improvise,
as I'm sure that's mainly what he did. I just included them for the sake of
showcase. Right before he goes into the Pre-chorus, he hits the F one last time
and tends to play the following...

    F
e|--0-----------0----|
B|--1---3-----3---3--|
G|--0h2---0h2--------|
D|--3----------------|
A|--3----------------|
E|--1----------------|




Pre-chorus (G, Am, F, C)
"Finding nothing of silver..."
"Laying roots down to soak up the poison..."

    G     Am    F     C
e|--1-----0-----0-----0----|
B|--0-----1-----1-----1----|
G|--0-----2-----0h2---0----|
D|--0-----2-----3-----0h2--|
A|--0h2---0-----3-----3----|
E|--3-----------1----------|




Outro
"Godless town, I'm really leaving..."

    Am    Em    F
e|--0-----0-----0-----|
B|--1-----0-----1-----|
G|--2-----0-----0h2---|
D|--2-----2-----3-----|
A|--0-----2-----3-----|
E|--------0-----1-----|


Questions? Comments? Hit me up on AOL Instant Messenger at jamisonlikewhat or via e-mail
2006. Buy it! Thanks.





Comments


Popular Rocky Votolato tabs & chords
Instrument Chords
Portland Is Leaving Chords
Uppers Aren't Necessary Chords
Without Eyes Still Seeing Chords
Your Darkest Eyes 1 Chords
Holding Onto Water Tabs
She Was Only In It For The Rain Tabs
Suicide Medicine Tabs
Treasure Chest Tabs
Lilly White Ukulele


Song lyrics



↑ Back to top | Tablatures and chords are parodies/interpretations of the original songs. You may use it for private study, scholarship, research or language learning purposes only
© 2014 AZChords.com Contact us | Privacy policy | DMCA | Add/correct tabs | Request tabs | Top 50 tabs