>
 >
Holding Onto Water

Holding Onto Water Guitar Tabs

Rocky Votolato - Holding Onto Water chords, tabs, tablatures, lyrics

Guitar lessons | Add/correct | Request | Top 50 tabs Artists:  A B C D E F G H I J K L M N O P Q R S T U V W X Y Z 0-9

Holding Onto Water Guitar Tabs – Rocky Votolato

CD, Sheet music, Poster

Do you like Holding Onto Water? Share with your friends now
Tabs
Holding Onto Water-- by Rocky Votolato


     B!    C#!     A!
eb --0------0------0----------------------|
Bb --0------0------0----------------------|
Gb --4------6------2----------------------|
Db --4------6------2----------------------|
Ab --2------4------0----------------------|
Eb --x------x------x----------------------|

(tuned down 1/2 step)

E             C#m         A \
  Some things can't be bottled
E              C#m              A \
  See how it's draining out the bottom
E           C#m          A \
  Just like holding onto water
E              C#m       A \
  My eyes will only open for so long

E            C#m    A \
  So show me every..thing
E            C#m       A \
  I'm always aching to see
E          C#m           A \
  It's not pretty I know.   but still, this is
  E        C#m      A
  who I'll always   be

B!                C#!        A!       C#!           C#! B! A!
  I'm learning to trust you enough to take from you
  B!              E    /C#!   A!
  You can trust me too
E   /C#!             A!
     do do do duh-ya   eyy yahh

-0----------------------0----------------------|
-0----------------------0-----2----------------|
-1--1-1--------------4--2---------2-----1h2-1--|
-2------2--------2------2-----2---2-----2---2--|
-2--------2--2/4---4----0------0-0-0-0-0-------|
-0---------------------------------------------|

-0------------------------0----------------|
-0------------------------0-----5----------|
-1--1h2p1--------------4--2--2/-------8----|
-2--------2--------2------2-----7-7-7-7-7--| (E)
-2----------2--2/4---4----0-----0-----0----|
-0-----------------------------------------|


E        C#m  A
  I have many gifts
E                 C#m              A
  That's right my God gave them to me
E             C#m    A
  I've worked hard to learn to use them and
  E        C#m     A   notes(B C# D#)..
  now I'll go and              teach

  E          C#m        A \
  Bothell is beautiful in the fall
E            C#m           A \
  Days of my youth were not so long ago
E           C#m             A \
  I learned things here that some men never see.  Oh the
  E               C#m               A
  lucky ones, the lucky ones know exactly what I mean


B!                C#!        A!       C#!           C#! B! A!
  I'm learning to trust you enough to take from you
  B!              E       /C#!             A!
  You can trust me too     do do do duh-ya   eyy yahh
E   /C#!             A!
     do do do duh-ya   eyy yahh

-0------------------------0--|
-0------------------------0--|
-1--1h2p1--------------4--2--|
-2--------2--------2------2--|
-2----------2--2/4---4----0--|
-0------------------------0--|

-0------------------------0--|
-0------------------------0--|
-1--1h2p1--------------4--2--|
-2--------2--------2------2--|
-2----------2--2/4---4----0--|
-0------------------------0--|





Comments


Popular Rocky Votolato tabs & chords
Automatic Rifle Chords
Lucky Clover Coin Chords
Mix Tapes Cellmates 1 Chords
Silver Trees Chords
Wait Out The Days Tabs
Above The Water Ukulele
Ill Catch You Ukulele
Montana Ukulele
Safety Is A Coffin Ukulele
Suicide Medicine Ukulele


Song lyrics



↑ Back to top | Tablatures and chords are parodies/interpretations of the original songs. You may use it for private study, scholarship, research or language learning purposes only
© 2014 AZChords.com Contact us | Privacy policy | DMCA | Add/correct tabs | Request tabs | Top 50 tabs