>
 >
Lucky Clover Coin

Lucky Clover Coin Guitar Tabs

Rocky Votolato - Lucky Clover Coin chords, tabs, tablatures, lyrics

Guitar lessons | Add/correct | Request | Top 50 tabs Artists:  A B C D E F G H I J K L M N O P Q R S T U V W X Y Z 0-9

Lucky Clover Coin Guitar Tabs – Rocky Votolato

CD, Sheet music, Poster

Do you like Lucky Clover Coin? Share with your friends now
ChordsTabsUkulele
Rocky Votolato - True Devotion
Tuning: Half Step Down
Jake K.


Such a hauntingly beautiful song. Enjoy.


  Intro (Same in the verse)
e|---------X---------X--------X----------X----|
B|--------10--------10--------0----------X----|
G|---------0---------0--------0----------9----|
D|------9--9---------0--------0---------10----|
A|---10---10------9--9-----7--7-----10--10----|
E|---------X---10---10---0----0---8------8----|


  Verse
e|-------X------------------X-------------------------------X---------------------------------X-|
B|------10-----------------10-------------------------------0---------------------------------X-|
G|-------0------------------0-------------------------------0---------------------------------9-|
D|----9--9------------------0-------------------------------0--------------------------------10-|
A|-10---10---------------9--9----------------------------7--7----------------------------10--10-|
E|-------X------------10---10--------------------------0----0--------------------------8------8-|
          You found a three leaf clover coin, you said it was good luck and I think it will be


e|---------X---------------------------X-------------------------X----------------------X--|
B|--------10--------------------------10-------------------------0----------------------X--|
G|---------0---------------------------0-------------------------0----------------------9--|
D|------9--9---------------------------0-------------------------0---------------------10--|
A|---10---10------------------------9--9----------------------7--7-----------------10--10--|
E|---------X---------------------10---10--------------------0----0---------------8------8--|
            Your eyes are broken glass the shattered light, shines on everything you see


  Chorus
e|------------0-------------------------2-----------0---------------------------0----------|
B|------------0-------------------------3-----------0---------------------------1----------|
G|------------0-------------------------2-----------0---------------------------0----------|
D|------------2-------------------------0-----------2---------------------------2----------|
A|------------2-------------------------0-----------2---------------------------3----------|
E|------------0-------------------------X-----------0---------------------------3----------|
    There's a world I want to leave behind, where a sunset in a constant bloody winter


e|---2-------------0----------0---------------------------0--------------------------------|
B|---3-------------1----------0---------------------------1--------------------------------|
G|---2-------------2----------0---------------------------0--------------------------------|
D|---0-------------2----------2---------------------------2--------------------------------|
A|---0-------------0----------2---------------------------3--------------------------------|
E|---X-------------X----------0---------------------------3--------------------------------|
    Gives the only light, and with it I hoped I would disappear


e|---------2---------------0---------0--------------------------------0--------------------|
B|---------3---------------1---------0--------------------------------1--------------------|
G|---------2---------------2---------0--------------------------------0--------------------|
D|---------0---------------2---------2--------------------------------2--------------------|
A|---------0---------------0---------2--------------------------------3--------------------|
E|---------X---------------X---------0--------------------------------3--------------------|
    You're keeping me alive till the sunlight shows spring roses and water


e|--------------2----------0----------0-----------------------------0--2-------------------|
B|--------------3----------1----------0-----------------------------1--3-------------------|
G|--------------2----------2----------0-----------------------------0--2-------------------|
D|--------------0----------2----------2-----------------------------2--0-------------------|
A|--------------0----------0----------2-----------------------------3--0-------------------|
E|--------------X----------X----------0-----------------------------3--X-------------------|
    And for the rest of my life, I'll put your broken pieces back together


  2nd Verse
e|---------X---------------------------X-------------X--------------------------X----------|
B|--------10--------------------------10-------------0--------------------------X----------|
G|---------0---------------------------0-------------0--------------------------9----------|
D|------9--9---------------------------0-------------0-------------------------10----------|
A|---10---10------------------------9--9----------7--7---------------------10--10----------|
E|---------X---------------------10---10--------0----0-------------------8------8----------|
            I want to spend more time with you, because you make me happy


e|---------X-------------------------------X----------------X----------------------X-------|
B|--------10------------------------------10----------------0----------------------X-------|
G|---------0-------------------------------0----------------0----------------------9-------|
D|------9--9-------------------------------0----------------0---------------------10-------|
A|---10---10----------------------------9--9-------------7--7-----------------10--10-------|
E|---------X-------------------------10---10-----------0----0---------------8------8-------|
            It's something I've done so little of, but you showed me that I can be


  Chorus
e|------------0-------------------------2-----------0---------------------------0----------|
B|------------0-------------------------3-----------0---------------------------1----------|
G|------------0-------------------------2-----------0---------------------------0----------|
D|------------2-------------------------0-----------2---------------------------2----------|
A|------------2-------------------------0-----------2---------------------------3----------|
E|------------0-------------------------X-----------0---------------------------3----------|
    There's a world I want to leave behind, where a sunset in a constant bloody winter


e|---2-------------0----------0---------------------------0--------------------------------|
B|---3-------------1----------0---------------------------1--------------------------------|
G|---2-------------2----------0---------------------------0--------------------------------|
D|---0-------------2----------2---------------------------2--------------------------------|
A|---0-------------0----------2---------------------------3--------------------------------|
E|---X-------------X----------0---------------------------3--------------------------------|
    Gives the only light, and with it I hoped I would disappear


e|---------2---------------0---------0--------------------------------0--------------------|
B|---------3---------------1---------0--------------------------------1--------------------|
G|---------2---------------2---------0--------------------------------0--------------------|
D|---------0---------------2---------2--------------------------------2--------------------|
A|---------0---------------0---------2--------------------------------3--------------------|
E|---------X---------------X---------0--------------------------------3--------------------|
    You're keeping me alive till the sunlight shows spring roses and water


e|--------------2----------0----------0-----------------------------0----------------------|
B|--------------3----------1----------0-----------------------------1----------------------|
G|--------------2----------2----------0-----------------------------0----------------------|
D|--------------0----------2----------2-----------------------------2----------------------|
A|--------------0----------0----------2-----------------------------3----------------------|
E|--------------X----------X----------0-----------------------------3----------------------|
    And for the rest of my life, I'll put your broken pieces back together     **PLAY X 2**


e|--------------2----------0--------0-----------------------------0------------------------|
B|--------------3----------1--------0-----------------------------1------------------------|
G|--------------2----------2--------0-----------------------------0------------------------|
D|--------------0----------2--------2-----------------------------2------------------------|
A|--------------0----------0--------2-----------------------------3------------------------|
E|--------------X----------X--------0-----------------------------3------------------------|
        For the rest of my life, I only want to walk the way you showed me  **END. Encore!!





Comments


Popular Rocky Votolato tabs & chords
Without Eyes Still Seeing Bass Tabs
Secrets Of A Salesman Chords
Sun Devil Chords
Tinfoil Hats Chords
White Daisy Passing Chords
Your Darkest Eyes 1 Chords
Red River Tabs
Automatic Rifle Ukulele
Lucky Clover Coin Ukulele
Mix Tapes Cellmates Ukulele


Song lyrics



↑ Back to top | Tablatures and chords are parodies/interpretations of the original songs. You may use it for private study, scholarship, research or language learning purposes only
© 2014 AZChords.com Contact us | Privacy policy | DMCA | Add/correct tabs | Request tabs | Top 50 tabs