» » »

Silent Tabs (ver.1)

Artists:  A B C D E F G H I J K L M N O P Q R S T U V W X Y Z # 

Silent Tabs (ver.1)

Rocky Votolato
Rating:
0/5 (0 votes)

Tabs too difficult? Try these video lessons and learn fast.
                Alubum: A Brief History
Time: 3:46
Tuning: EbADGBe

Intro
------------------------------------------------------------------------|
--------4-----------------4---------------2-----------------2-----------|
--------5-----------------5-----3---------3-----------------3-----------|X2
---6------6---6-----6-------6---------4-------4---4----4---------4--4---|
-4---4------4-----4---4-------4---------4-------4--------4---------4----|
------------------------------------3--------3--------3--------3--------|

Verse
-------------------------------------------------------------------------|
--------4-----------------4-----------------2-----------------2----------|
--------5-----------------5-------3---------3-----------------3----------|
---6-------6---6-----6-------6----------4--------4---4----4-------4---4--|X3
-4---4-------4-----4---4-------4----------4--------4--------4-------4----|
--------------------------------------3--------3--------3-------3--------|
                    Part of me wants silence
                    Half the time my ears are ringing
                    Parts somewhere need silence
------------------------------------------------------------------------------------------|
--------4-----------------4----------------4-----------------2-----------------2----------|
--------5-----------------5------3---------3-----------------3-----------------3----------|
---6-------6---6-----6-------6-------------4---4---4----4----4----4---4----4---4----4---4-|
-4---4-------4-----4---4-------4-------1---------1--------4---------4--------4--------4---|
-------------------------------------0---0----0-------3---------3--------3--------3-------|
             And I know i should be listening

---------------------------------------------------------------------------|
---------3---------------3-----------------2----------------2--------------|
---------4---3---3-------4---3---3---------3----------------3--------------|
----4--4-------4-----4-4-------4-------4---4---4---4----4---4----4---------|
----1------2---------1-----2-------------4-------4--------4----------------|
-~2-0----------------0---------------3--------3-------3--------3-----------|
               Dont try and understand it all


------------------------------------------------------------------|
---------3---------------3----------------------------------------|
---------4---3---3-------4---3---3------5-------------------------|
----4--4-------4-----4-4-------4--------6--6---6------------------|
----1------2---------1-----2--------------------------------------|
-~2-0----------------0---------------5-------5-----5--------------|
                     You know its something youll never gonna figure out


------------------------------------------------------------------------|
--------4-----------------4---------------2-----------------2-----------|
--------5-----------------5-----3---------3-----------------3-----------|
---6------6---6-----6-------6---------4-------4---4----4---------4--4---|
-4---4------4-----4---4-------4---------4-------4--------4---------4----|
------------------------------------3--------3--------3--------3--------|
                   Head down quiet

------------------------------------------------------------------------------------------|
--------4-----------------4----------------4-----------------2-----------------2----------|
--------5-----------------5------3---------3-----------------3-----------------3----------|
---6-------6---6-----6-------6-------------4---4---4----4----4----4---4----4---4----4---4-|
-4---4-------4-----4---4-------4-------1---------1--------4---------4--------4--------4---|
-------------------------------------0---0----0-------3---------3--------3--------3-------|
                   Did you think it was gonna get you anywhere

------------------------------------------------------------------------|
--------4-----------------4---------------2-----------------2-----------|
--------5-----------------5-----3---------3-----------------3-----------|
---6------6---6-----6-------6---------4-------4---4----4---------4--4---|
-4---4------4-----4---4-------4---------4-------4--------4---------4----|
------------------------------------3--------3--------3--------3--------|
                  Did you ever want to reach someone
                  Felt you lost along the way
                  I wanted to reach someone

------------------------------------------------------------------------------------------|
--------4-----------------4----------------2-----------------2-----------------2----------|
--------5-----------------5------3---------3-----------------3-----------------3----------|
---6-------6---6-----6-------6-------------4---4---4----4----4----4---4----4---4----4---4-|
-4---4-------4-----4---4-------4-------1---------1--------4---------4--------4--------4---|
-------------------------------------0---0----0-------3---------3--------3--------3-------|
                    Mean so much id have to say


---------------------------------------------------------------------------|
---------3---------------3-----------------2----------------2--------------|
---------4---3---3-------4---3---3---------3----------------3--------------|
----4--4-------4-----4-4-------4-------4---4---4---4----4---4----4---------|
----1------2---------1-----2-------------4-------4--------4----------------|
-~2-0----------------0---------------3--------3-------3--------3-----------|
               Dont try and understand it all


-------------------------------------------------------------------------|
---------3---------------3-----------------------------------------------|
---------4---3---3-------4---3---3----------5----------------------------|
----4--4-------4-----4-4-------4------------6----------------------------|
----1------2---------1-----2-----------3---------------------------------|
-~2-0----------------0---------------5---5-------------------------------|
                     You know its something youre never gonna figure out

--x---1--xxx--x--1--xxx---2--2----2---1-------------------|
--2---2--222--2--2--222---2---2-----------4----2----------|
--x------xxx--x-----xxx---3-------------------------------|
--3------333--3-----333---4-------------------------------|X4
--4------444--4-----444-----------------------------------|
--x------xxx--x-----xxx---------3---3---3----3------------|
         udu        udu

---x--------------------------x---------------------------|
---4--------------------------2---------------------------|
---5--5-----5-----5--6-5-6----1---------------------------|
---6----6-----6---------------3---------------------------|
---3------3-----3-------------4---------------------------|
----------------------------------------------------------|
            
Tabs too difficult? Try these video lessons and learn fast.


comments powered by Disqus
↑ Back to top | Tablatures and chords are parodies/interpretations of the original songs. You may use it for private study, scholarship, research or language learning purposes only