>
 >
The Blue Rose

The Blue Rose Guitar Tabs

Rocky Votolato - The Blue Rose chords, tabs, tablatures, lyrics

Guitar lessons | Add/correct | Request | Top 50 tabs Artists:  A B C D E F G H I J K L M N O P Q R S T U V W X Y Z 0-9

The Blue Rose Guitar Tabs – Rocky Votolato

CD, Sheet music, Poster

Do you like The Blue Rose? Share with your friends now
Tabs
Rocky Votolato - The Brag & Cuss
Tuning: Half step down
Jake K.

Fun song to play.

e|----3----------------------0-------------------------2------------------3---------------------|
B|----3----------------------2-------------------------3------------------3---------------------|
G|----0----------------------2-------------------------2------------------0---------------------|
D|----0----------------------2-------------------------0------------------0---------------------|
A|----X----------------------0-------------------------0------------------X---------------------|
E|----3----------------------X-------------------------X----------------2-3---------------------|
       Full of regrets grave diggers will find there's no map to follow & the road's all changed


e|-------2------------------------0---------------------0--------------|
B|-------3------------------------0---------------------2--------------|
G|-------2------------------------1---------------------2--------------|
D|-------0------------------------2---------------------2--------------|
A|-------0------------------------2---------------------0--------------|
E|-------X------------------------0---------------------X--------------|
 There's smoke in your brain and no one to show you the way


e|-3----0-2----------3------------------3-----------0------------0---------------------2-|
B|-3----2-3----------3------------------3-----------0------------2---------------------3-|
G|-0----2-2----------0------------------0-----------0------------2---------------------2-|
D|-0----2-0----------0------------------0-----------2------------2---------------------0-|
A|-X----0-0----------X------------------x-----------2------------0---------------------0-|
E|-3----X-X----------3------------------2-----------0------------X---------------------X-|
    Surrender to the weight of what you gambled and lost, but at least ... ... anymore


e|----3----------------------0-------------2----------------------------3------|
B|----3----------------------2-------------3----------------------------3------|
G|----0----------------------2-------------2----------------------------0------|
D|----0----------------------2-------------0----------------------------0------|
A|----X----------------------0-------------0----------------------------X------|
E|----3----------------------X-------------X--------------------------2-3------|
        On the way back from hell tonight, smoke's rising up through the lights


e|-------2---------------------------------3-------3-----------------0--------0----0--|
B|-------3---------------------------------3-------3-----------------2--------3----2--|
G|-------2---------------------------------0-------0-----------------2--------2----2--|
D|-------0---------------------------------0-------0-----------------2--------2----2--|
A|-------0---------------------------------X-------X-----------------0--------0----0--|
E|-------X---------------------------------3-------2-----------------X--------X----X--|
   There's a reason that you don't have to talk, I know what you're thinking


e|--2-----------3------------2-------------3--2-------------0--------------0---|
B|--3-----------3------------3-------------3--3-------------0--------------2---|
G|--4-----------0------------2-------------0--2-------------0--------------2---|
D|--4-----------0------------0-------------0--0-------------2--------------2---|
A|--2-----------X------------0-------------X--0-------------2--------------0---|
E|--X-----------3------------X-------------3--X-------------0--------------X---|
    Somewhere a blue rose is in a coke bottle blooming on a kitchen window sill


e|-3-----0-2----------3------------------3-----------0------------0-------------|
B|-3-----2-3----------3------------------3-----------0------------2-------------|
G|-0-----2-2----------0------------------0-----------0------------2-------------|
D|-0-----2-0----------0------------------0-----------2------------2-------------|
A|-X-----0-0----------X------------------x-----------2------------0-------------|
E|-3-----X-X----------3------------------2-----------0------------X-------------|
     Surrender to the weight of what you gambled and lost, but at least you don't have 
lie to yourself


e|-------2---2-3------2---2-3--3--0-------5-----------|
B|-------3---3-3------3---3-3--3--2---b5h7-b7p5-------|
G|-------2---0-0------2---0-0--0--2------------7p6-7--|
D|-------0---0-0------0---0-0--0--2-------------------|
A|-------0---X-X------0---X-X--X--0-------------------|
E|-------X---2-3------X---2-3--2--X-------------------|
  anymore          anymore


e|----3-------------0----------------2--------------------3---------------------|
B|----3-------------2----------------3--------------------3---------------------|
G|----0-------------2----------------2--------------------0---------------------|
D|----0-------------2----------------0--------------------0---------------------|
A|----X-------------0----------------0--------------------X---------------------|
E|----3-------------X----------------X------------------2-3---------------------|
       Ghost trains run on the track down a gravel hill behind a trailer house


e|-------2----------------0--------------0------0----0----|
B|-------3----------------0--------------2------3----2----|
G|-------2----------------1--------------2------2----2----|
D|-------0----------------2--------------2------2----2----|
A|-------0----------------2--------------0------0----0----|
E|-------X----------------0--------------X------X----X----|
  You can hear 'em if you listen close enough


e|-3--------------------0-----------------2---------------------3---------------------|
B|-3--------------------2-----------------3---------------------3---------------------|
G|-0--------------------2-----------------2---------------------0---------------------|
D|-0--------------------2-----------------0---------------------0---------------------|
A|-X--------------------0-----------------0---------------------X---------------------|
E|-3--------------------X-----------------X-------------------2-3---------------------|
    It's the sound of a world that forgot where it came from and every lesson learned


e|-2---------------0----------------0--------------|
B|-3---------------0----------------2--------------|
G|-2---------------1----------------2--------------|
D|-0---------------2----------------2--------------|
A|-0---------------2----------------0--------------|
E|-X---------------0----------------X--------------|
    I can feel the ending creeping up

e|-3-----0-2----------3------------------3-----------0------------0------------|
B|-3-----2-3----------3------------------3-----------0------------2------------|
G|-0-----2-2----------0------------------0-----------0------------2------------|
D|-0-----2-0----------0------------------0-----------2------------2------------|
A|-X-----0-0----------X------------------x-----------2------------0------------|
E|-3-----X-X----------3------------------2-----------0------------X------------|
     Surrender to the weight of what you gambled and lost, but at least you don't have 
lie to yourself


e|-------2---2-3------2---2-3------2---2-2---3--0-------5-----------2-|
B|-------3---3-3------3---3-3------3---3-2---3--2---b5h7-b7p5-------3-|
G|-------2---0-0------2---0-0------2---0-0---0--2------------7p6-7--2-|
D|-------0---0-0------0---0-0------0---0-0---0--2-------------------0-|
A|-------0---X-X------0---X-X------0---X-X---X--0-------------------0-|
E|-------X---2-3------X---2-3------X---2-3---2--X-------------------X-|
  anymore          anymore      anymore





Comments


Popular Rocky Votolato tabs & chords
I'll Catch You Chords
Makers Chords
Secrets Of A Salesman Chords
The Wrong Side Of Reno Chords
Prison Is Private Property Tabs
Treasure Chest Tabs
Wait Out The Days Tabs
Death-right Ukulele
Lily White Ukulele
One More Work Song Blues Ukulele


Song lyrics



↑ Back to top | Tablatures and chords are parodies/interpretations of the original songs. You may use it for private study, scholarship, research or language learning purposes only
© 2014 AZChords.com Contact us | Privacy policy | DMCA | Add/correct tabs | Request tabs | Top 50 tabs