» » »

Dying Is Fine Bass tabs (ver.1)

Artists:  A B C D E F G H I J K L M N O P Q R S T U V W X Y Z # 

Dying Is Fine Bass tabs (ver.1)

Ra Ra Riot
Rating:
0/5 (0 votes)

Tabs too difficult? Try these video lessons and learn fast.
                -------------------------------------------------------------------------------
                             Dying is Fine - Ra Ra Riot
-------------------------------------------------------------------------------

Tuning:Standard

Before you start let me make it clear that this tab is for the 
Ra Ra Riot EP version of Dying is Fine, the 6:09 version. 
I will also do a Rhumb Line version later (the 3:52 version).
I just prefer this version.

Intro
G|------------------------------------------------------------------------------|
D|------------------------------------------------------------------------7777/-|
A|-5555555555555555\-----------------------------------------5--5-5-5-5-5-------|
E|-------------------------5--5-5-5-5-5-5-5-7--7-7-7-7-7-7-7--------------------|

Verse
G|-----------------------------------------------------------------------|
D|-----------------------------------------------------------------7777/-|
A|----------------------------------------------------5--5-5-5-5-5-------|
E|-3--3-3-3-3-3-3-3-5--5-5-5-5-5-5-5-7--7-7-7-7-7-7-7--------------------|

Pre-Chorus
G|-----------6-9~---11~---12\-|
D|-5~---7~--------------------|
A|----------------------------|
E|----------------------------|

Verse
G|-----------------------------------------------------------------------|
D|-----------------------------------------------------------------7777/-|
A|----------------------------------------------------5--5-5-5-5-5-------|
E|-3--3-3-3-3-3-3-3-5--5-5-5-5-5-5-5-7--7-7-7-7-7-7-7--------------------|

G|-----------------------------------------------------------------------|
D|-----------------------------------------------------------------7777/-|
A|----------------------------------------------------5--5-5-5-5-5-------|
E|-3--3-3-3-3-3-3-3-5--5-5-5-5-5-5-5-7--7-7-7-7-7-7-7--------------------|

Pre-Chorus
G|-----------6-9~---11~---12\-|
D|-5~---7~--------------------|
A|----------------------------|
E|----------------------------|

Chorus
G|----------------------------------------------------------2--2-2-2-2--2--2--|
D|--------------------4--4-4-4-4--4--4---5--5-5-5-5--5--5---------------------|
A|-5--5-5-5-50250250------------02-02-0------------02-02-0------------02-02-0-|
E|----------------------------------------------------------------------------|

G|-------------------------------------------7---7----------2--2-2-2-2--2--2-|
D|--------------------4--4-4-4-4--4--4----5-5-5-5-5--5--5--------------------|
A|-5--5-5-5-50250250------------02-02-0------------02-02-0------------02-02--|
E|---------------------------------------------------------------------------|

or you could play the chorus as this, whichever is more comfortable

G|----------------------------------------------------------------------------|
D|--------------------4--4-4-4-4--4--4---5--5-5-5-5--5--5---7--7-7-7-7--7--7--|
A|-5--5-5-5-5--5--5-----------------------------------------------------------|
E|-----------57-57-5------------57-57-5------------57-57-5------------57-57-5-|

G|------------------------------------------7---7---------------------------|
D|--------------------4--4-4-4-4--4--4---5-5-5-5-5--5--5---7--7-7-7-7--7--7-|
A|-5--5-5-5-5--5--5---------------------------------------------------------|
E|-----------57-57-5------------57-57-5-----------57-57-5------------57-57--|

Verse
G|------------------------------------------------------------------|
D|------------------------------------------------------------7777/-|
A|-------------REST------------------------------5--5-5-5-5-5-------|
E|------------------------------7--7-7-7-7-7-7-7--------------------|

G|-----------------------------------------------------------------------|
D|-----------------------------------------------------------------7777/-|
A|----------------------------------------------------5--5-5-5-5-5-------|
E|-3--3-3-3-3-3-3-3-5--5-5-5-5-5-5-5-7--7-7-7-7-7-7-7--------------------|

Pre-Chorus
G|-----------6-9~---11~---12\-|
D|-5~---7~--------------------|
A|----------------------------|
E|----------------------------|

Chorus
G|----------------------------------------------------------2--2-2-2-2--2--2--|
D|--------------------4--4-4-4-4--4--4---5--5-5-5-5--5--5---------------------|
A|-5--5-5-5-50250250------------02-02-0------------02-02-0------------02-02-0-|
E|----------------------------------------------------------------------------|

G|-------------------------------------------7---7----------2--2-2-2-2--2--2-|
D|--------------------4--4-4-4-4--4--4----5-5-5-5-5--5--5--------------------|
A|-5--5-5-5-50250250------------02-02-0------------02-02-0------------02-02--|
E|---------------------------------------------------------------------------|

Bridge
G|------------------------9---9/11\-|
D|-/9-----------------9-------------|
A|------10---9---10-----------------|
E|----------------------------------|

G|---------------------------------------------------------------------------|
D|---------------------------------------------------------------------------|
A|-2---------------0-2---------------2---------------0-2-------------------0-|
E|-----3---2---3---------3---2---3-------3---2---3---------3---2---2-3-3-3---|

G|-------------------------------------------------------------------------|
D|-------------------------------------------------------------------------|
A|-2--2-2-2--------------------------0-2--2-2-2--------------------------0-|
E|----------3--3-3-3-2--2-2-2-3--3-3------------3--3-3-3-2--2-2-2-3--3-3---|

G|-------------------------------------------------------------------------|
D|-------------------------------------------------------------------------|
A|-2--2-2-2--------------------------0-2--2-2-2--------------------------0-|
E|----------3--3-3-3-2--2-2-2-3--3-3------------3--3-3-3-2--2-2-2-3--3-3---|

G|------------------------------------------------------------------------|
D|------------------------------------------------------------------------|
A|-2--2-2-2--------------------------0-2--2-2-2-------------------------0-|
E|----------3--3-3-3-2--2-2-2-3--3-3------------3--3-3-3-2--2-2-2-3-3-3---|

G|------------------------------------------------------------------|
D|-------------------------222222224444--------------------22224444-|
A|-222222224444444455555555------------44440000----00004444---------|
E|---------------------------------------------2222-----------------|

Chorus
G|----------------------------------------------------------2--2-2-2-2--2--2--|
D|--------------------4--4-4-4-4--4--4---5--5-5-5-5--5--5---------------------|
A|-5--5-5-5-50250250------------02-02-0------------02-02-0------------02-02-0-|
E|----------------------------------------------------------------------------|

G|-------------------------------------------7---7----------2--2-2-2-2--2--2-|
D|--------------------4--4-4-4-4--4--4----5-5-5-5-5--5--5--------------------|
A|-5--5-5-5-50250250------------02-02-0------------02-02-0------------02-02--|
E|---------------------------------------------------------------------------|

Outro
G|-----------------------------------------------------------------------|
D|-------------------------------------------------------------5/779977\-|
A|----------------------------------------------------5--5-5-5-----------|
E|-3--3-3-3-3-3-3-3-5--5-5-5-5-5-5-5-7--7-7-7-7-7-7-7--------------------|

G|------------------------------------------------------------------|
D|-55555555555555557777777777777457999999999999999\--------7779977\-|
A|-------------------------------------------------55555555---------|
E|------------------------------------------------------------------|

G|------------------------------------------------------------------|
D|---------------------------------------------------------7779977\-|
A|-------------------------------------------------55555555---------|
E|-333333333333333355555555555555557777777777777777-----------------|

G|-----7-------7-------9-------9-------11---11---11--------------------|
D|-5555-5555555-5557777-7777777-7779999--999--999--999----7---7779977\-|
A|----------------------------------------------------5555-555---------|
E|---------------------------------------------------------------------|

G|------------------------------------------------------------------|
D|-----------------------------------------------------7---7779977\-|
A|-----5-------5-------7-------7-------9---9---9---5555-555---------|
E|-3333-3333333-3335555-5555555-5557777-777-777-777-----------------|

G|---7---7---7---7---9--9--9--9--9---11---11---11---11\-----------------|
D|-55-555-555-555-577-77-77-77-77-799--999--999--999-----7--7--7779977\-|
A|-----------------------------------------------------55-55-55---------|
E|----------------------------------------------------------------------|

It's hard to hear this last bit so I have no doubt it's wrong. 
It's just how I play it, which is wrong.
G|--------------------------------------------------------------------|
D|---------------------------------------------------7--7--7779999\5~-|
A|-------5---5---5-------------------9---9-9--9--9-55-55-55-----------|
E|-333-33-333-333-3555-5-5-5-5-523577-777-7-77-77-7-------------------|


| /  slide up
| \  slide down
| h  hammer-on
| p  pull-off
| ~  vibrato
| +  harmonic
| x  Mute note
===============================================================================
            
Tabs too difficult? Try these video lessons and learn fast.




comments powered by Disqus
↑ Back to top | Tablatures and chords are parodies/interpretations of the original songs. You may use it for private study, scholarship, research or language learning purposes only