>
 >
Satisfaction

Satisfaction Ukulele

Rolling Stones - Satisfaction chords, tabs, tablatures, lyrics

Guitar lessons | Add/correct | Request | Top 50 tabs Artists:  A B C D E F G H I J K L M N O P Q R S T U V W X Y Z 0-9

Satisfaction Ukulele – Rolling Stones

CD, Sheet music, Poster

Do you like Satisfaction? Share with your friends now
Bass TabsBass Tabs v2Bass Tabs v3ChordsChords v2Chords v3Drum TabsTabsTabs v2Tabs v3Ukulele
A-|-2--2----2--4--5----5--4--| REPEAT 4x then play the first note:-2-and end Riff until the verse.

CHORUS:
E              A             E              A
I can't get no satisfaction  I can't get no satisfaction (Improvise Until Riff) 
---------------------------------------------------------
             E              B7             E          A
Cause I try__   and I try___    and I try__  and try__
~~~~~~~~~~~~~~~~~~~~~~~~~~~~~~~~~~~~~~~~~~~~~~~~~~~~~~~~~

                      
A        E            A  D       A       E             A  D
I can't get no                  I can't get no
||------2---2------2--4--5-----5—4-----2---2------2--4--5--------------------

 A    E               A  D        A      E             A  D
When I'm driving    in my car    and the man comes on the radio
5-----4---2---2------2--4--5-----5----4---2----2----2--4---5----5--4---------

A     E               A  D        A      E             A  D
he's telling me more and more   about some useless information
------2---2----------2--4--5-------5---4----2---2-----2--4--5----------------

A            E          A   D       A      E             D
supposed to drive my imagination  I can't get no
-------5--4---2---2----2--4--5-----5--4----2--2------2--4--5-----------------

     A      E    (NC)       E      A  D      A           E      A D
Oh no  no  no    hey  hey  hey            That's what I say
---5--4-----2---------------2--2---2-4-5---5--4----------2-2---2-4-5--5-4--||


E              A             E              A
I can't get no satisfaction  I can't get no satisfaction (Improvise Until Riff) 
---------------------------------------------------------
             E              B7             E          A
Cause I try__   and I try___    and I try__  and try__
~~~~~~~~~~~~~~~~~~~~~~~~~~~~~~~~~~~~~~~~~~~~~~~~~~~~~~~~~
 

A        E            A  D       A       E             A  D
I can't get no                  I can't get no
||-----2---2------2--4--5-----5--4-----2---2------2--4--5---------------------

 A       E           A  D        A      E            A  D
When I'm watching   my  T.V.    and the man comes on and tells me
5----4---2---2------2--4--5-----5----4---2----2----2--4---5----5--4-------------

A     E               A  D        A      E             A  D
How white my shirts  could be   but he can't be a man cause he doesn't smoke
------2---2----------2--4--5----5---4----2---2-------2--4--5-------------5--4---    

A      E             A   D       A      E             A  D
The same cigarettes as me      I can't get no
--2---2-------------2--4--5----5--4-----2--2--------2--4--5------------------

     A      E    (NC)       E      A  D      A           E      A D
Oh no  no  no    hey  hey  hey            That's what I say
---5--4-----2---------------2--2---2-4-5---5--4----------2-2---2-4-5--5-4--2
||


E              A             E              A
I can't get no satisfaction  I can't get no satisfaction (Improvise Until Riff) 
---------------------------------------------------------
             E              B7             E          A
Cause I try__   and I try___    and I try__  and try__
~~~~~~~~~~~~~~~~~~~~~~~~~~~~~~~~~~~~~~~~~~~~~~~~~~~~~~~~~


A        E            A  D       A       E             A  D
I can't get no                  I can't get no
||-------2---2------2--4--5-----5--4-----2---2------2--4--5------------------

 A          E         A  D        A       E             A  D
When I'm  ridin' roundtheworld   and I'm doing this and I'm singing that
5-----4---2---2------2--4--5-----5----4---2--2---------2--4--5-------5--4----

A     E               A  D        A         E             A  D
I'm trying to get some girl she tells me a baby better come back Maybe next week
------2---2----------2--4--5-------5--4-----2---2--------2--4--5-------5---4

A      E                D       A      E             A  D
cause you see I'm on a losing streak  I can't get no
-------2---2-------2--4--5-----5--4-----2--2--------2--4--5------------------

     A      E    (NC)       E      A  D      A           E      A D
Oh no  no  no    hey  hey  hey            That's what I say
---5--4-----2---------------2--2---2-4-5---5--4----------2-2---2-4-5--5-4--2-||


A        E            A  D       A       E             A  D
I can't get no                  I can't get no
||-------2---2------2--4--5-----5--4-----2---2------2--4--5------------------

 A        E           A  D       A       E         A  D
I can't get no                  satisfaction
---------2---2------2--4--5-----5--4---2---2------2--4--5--------------------

A        E            A  D       A       E          A  D
No satisfaction                 no satisfaction
5---4----2---2------2--4--5-----5--4----2---2------2--4--5-------------------

A        E            A  D       A       E          A  D
No satisfaction                 I can't get no 
5---4----2---2------2--4--5-----5--4-----2---2------2--4--5------------------

    A  
Oh no no no!   
--5--4----2-|| <---------------END ON THIS NOTE





Comments


Popular Rolling Stones tabs & chords
Far Away Eyes 2 Chords
Gimmie Shelter Chords
Going To A Go Go Chords
Paint It Black 2 Chords
Sing This All Together Chords
2000 Light Years From Home 1 Tabs
Brown Sugar Tabs
Going To A Go Go Tabs
If You Can´T Rock Me Tabs
Shattered Tabs


Song lyrics



↑ Back to top | Tablatures and chords are parodies/interpretations of the original songs. You may use it for private study, scholarship, research or language learning purposes only
© 2014 AZChords.com Contact us | Privacy policy | DMCA | Add/correct tabs | Request tabs | Top 50 tabs