» » »

Sweet Virginia Tabs (ver.2)

Artists:  A B C D E F G H I J K L M N O P Q R S T U V W X Y Z # 

Sweet Virginia Tabs (ver.2)

Rolling Stones
Rating:
0/5 (0 votes)

Tabs too difficult? Try these video lessons and learn fast.
                Sweet Virginia
The Rolling Stones
Exile on Main St.

I saw that there were no good tabs at all for this song so this is how ive always played 
Hope u like it

Key of A
Capo 2

----------3-3-------------2-2-------3------2-2-----3------------------------|
----0-----0-0-------------3-3----1--0--1-1-3-3-1-1-0------------------------|
--0-------0-0-------0---2-2-2--0-0--0--0-0-2-2-0-0-0--0--2--4~~~~-----------|
-0---0----0-0--0-0h2--0---0-0----2--0--2-2-0-0-2-2-0------------------------|
----------2-2--------------------3--2--3-3-----3-3-2------------------------|
-------3--3-3-----------------------3--------------3------------------------|

harmonica part
if u dont have a harmonica, play this instead
----------------------------------------------------------------------------|
--------------------------------------------------------------3-3-3p0-------|
----0~~-2~~-0-2--4~~~~4--2-0-2-0~~~2~~~4~~~4--2-0-2-0~~~2~~~/4-------0h2~~~-|
----------------------------------------------------------------------------|
----------------------------------------------------------------------------|
----------------------------------------------------------------------------|

C                      A                 G
Wading through the waste        stormy winter
Thank you for your wine            California

C                      A                  G
and there's   not a friend  to help you through
thank you   for your sweet   and bitter fruits

C                      A                  G        C
Trying to stop the waves  behind your eye-balls
Yes   I  got  the   desert   in   my     toe-nail

G                     D                        G   C
Drop your reds       drop your greens  an blues
And I hid the speed insdie       my       shoes

C                     A                 G
Come on,  come on down,   Sweet    Virginia
C                     A                 G
Come on,  honey  Child     I beg of    you
C                     A                 G
Come on,  come on down,     you got it in you
C                    D                    G
Got to scr*pe that sh*t   right off your shoes
(repeat this last part twice after the solo)

Sax solo
i also tabbed this. it sounds better on sax but it also sounds pretty good on a guitar.
--------------------------------3---------------|--5-3---3-3-3---3~----------|
------3-3--3--3-3---5p3h5-5-5-3--5-3-3----------|-5---5-5------5---5-8-8-8-5-|
-0-2/4-------4---4------------------4--4p2p0-2~~|----------------------------|
------------------------------------------------|----------------------------|
------------------------------------------------|----------------------------|
------------------------------------------------|----------------------------|

-5---------10~~------------------------------------10-10-7------------------|
--8~~-8-10b----10brb-8-8-10b---10b-10-8---10b-10-8---------10-8------8------|
----------------------9-------9---------9---------9------------9-7-9--------|
----------------------------------------------------------------------------|
----------------------------------------------------------------------------|
----------------------------------------------------------------------------|

----------------------------------------------------------------------------|
-------------------------0h3p0-----0-----------------------------3----------|
--9-7----------------0h2-------2-----2p0---2p0-------0-----0-2/4------------|
------9--7-------------------------------2-----2-0h2---0h2------------------|
------------10-7-10---------------------------------------------------------|
----------------------------------------------------------------------------|
            
Tabs too difficult? Try these video lessons and learn fast.




comments powered by Disqus
↑ Back to top | Tablatures and chords are parodies/interpretations of the original songs. You may use it for private study, scholarship, research or language learning purposes only