» » »

Time Waits For No One Tabs (ver.2)

Artists:  A B C D E F G H I J K L M N O P Q R S T U V W X Y Z # 

Time Waits For No One Tabs (ver.2)

Rolling Stones
Rating:
0/5 (0 votes)
Tabs too difficult? Try these video lessons and learn fast.
                (Intro)
First bit of lead on time waits for no one by the stones. 
Comes in around 18 - 20 seconds. Listen carefully for timings.

E-------------5--7--5-----|
B---------6------------6--|
G-5/-7-------------------7|
D-------------------------|
A-------------------------|
E-------------------------|


E--------7--5------|
B--------------5---|
G----5------------5|
D-7----------------|
A------------------|
E------------------|


E--------------|
B----------6--5|
G-------5------|
D5-5-5--7------|
A--------------|
E--------------|


E------------------|
B------------------|
G------5--7/9\-7--5|
D-5h7--------------|
A------------------|
E------------------|

E---------------------|
B---------------------|
G-7--5--4-------------|
D----------5----55----|
A---------------------|
E---------------------|
            
Tabs too difficult? Try these video lessons and learn fast.


comments powered by Disqus
↑ Back to top | Tablatures and chords are parodies/interpretations of the original songs. You may use it for private study, scholarship, research or language learning purposes only