» » »

Tumblin Dice Bass tabs (ver.1)

Artists:  A B C D E F G H I J K L M N O P Q R S T U V W X Y Z # 

Tumblin Dice Bass tabs (ver.1)

Rolling Stones
Rating:
0/5 (0 votes)

Tabs too difficult? Try these video lessons and learn fast.
                Rolling Stones                                     |----------`---`-|
Tumblin Dice                                       |----------------|
bass tab                                           |----------------|
                                                   |----------------|
  0.02         intro             t:120
|----`-------`---|----`-------`---|----`-------`---|----`-------`---|
|----------------|----------------|----------------|----------------|
|2-----2-2-2-=-2-|2-2---2-2-2-2-2-|2-----2-2-2-=-2-|2-----2-2-----2-|
|----------------|----------------|----------------|------------2---|

  0.11         verse 1a
|----`-------`---|----`-------`---|----`-------`---|----`-------.`.-|
|----------------|----------------|----------------|----------------|
|2-----2-2-2-=-2-|2-.-2-.-2-2-=-2-|2-.-.-.-2-2---2-|2-.-4-.-6-6-7-7-|
|----------------|----------------|----------------|----------------|

|----------------|----------------|----------------|----------------|
|--11------9-----|--11------9-----|----------------|----------------|
|9---9-------7-8-|9---9---------=-|7-----7-7-----7-|9-9-9-9-9-7-----|
|------7---------|------7-----7---|----------7-9---|------------9-8-|

  0.29         verse 1b
|----`-------`---|----`-------`---|----`-------`---|----`-------.`.-|
|----------------|----------------|----------------|--------9-7-----|
|----------------|----------------|----------------|----7-9-----7-8-|
|7-----7-7-7-=-7-|7-7---7-9-7-=-7-|7---=-7-9-7-=-7-|8-9-------------|

|----------------|----------------|----------------|----------------|
|--11------9-----|--11------999---|----------------|----------------|
|9---9-------7-8-|9---9-----------|7-----7-7-----7-|9-9-9-9-9-7-----|
|------7---------|------7---------|----------7-9---|------------9-8-|

  0.46         verse 1c
|----`-------`---|----`-------`---|----`-------`---|----`-------.`.-|
|----------------|----------------|--------4-------|----------------|
|--------------2-|2-2---2-3-2---2-|.-2-2-.---4---2----2-4-2-6-6-7-7-|
|7-----7-7-7-=---|------------2---|------------2---|----------------|

|----------------|----------------|
|--11------9-----|--11------9-9---|
|9---9-------7-8-|9---9-----------|
|------7---------|------7---------|

  0.59         chorus 1
|----------------|----------------|----------------|----------------|
|----------------|----------------|----------------|----------------|
|7-=-------------|----------------|----------------|----------------|
|----------------|----------------|7-----7-7-7-=-7-|7-----7-7---=-7-|

  1.08         verse 2a
|----------------|----------------|----------------|----------------|
|----------------|----------------|----------------|--------------9-|
|----------------|----------------|----------------|-------11-9-11--|
|7-----7-7-7-=-7-|7-----7-7---=-7-|7-----7-7---=-7-|7-----7---------|

|----------------|----------------|----------------|----------------|
|--11------9-9---|--11------9-9-=-|2-----2-2-----2/|4-4-4-4-4-------|
|9---9---------7-|9---9-----------|----------2-4---|----------7-4\--|
|------7---------|------7---------|----------------|----------------|

  1.25         verse 2b
|----------------|----------------|--------4-2-----|----------------|
|----------------|----------------|------------4---|------7-9-9-----|
|2-----2-2-2-=-2-|2-----2-2-----2-|2-.-2-.-------2-|2-4/9-------7-8-|
|----------------|------------2---|----------------|----------------|

|----------------|----------------|
|--11------9-9---|--11------9-9---|
|9---9---------7-|9---9-----------|
|------7---------|------7---------|

  1.38         chorus 2
|----------------|----------------|----------------|----------------|
|----------------|----------------|----------------|----------------|
|7---=-----------|----------------|7-----------=---|--------9-------|
|----------------|----------------|----------------|7---------------|

  1.47         solo
|----------------|----------------|----------------|----------------|
|----------------|----------------|----------------|----------------|
|----------------|----------------|----------------|----------------|
|7-------7-----7-|7-----7-7-----7-|7-------7-----7--------7-7-----7-|

                                  |----------------|----------------|
                                  |----------------|--------9-7-----|
                                  |----------------|----7-9-----7-9-|
                                  |7-------7-----7-|7-7-------------|
  2.00
|----------------|----------------|----------------|----------------|
|--11------9-----|--11------9-----|----------------|----------------|
|9---9-------7-8-|9---9-------9-=-|7-----7-7-7-7-8-|9-9-9-9-9-7-----|
|------7---------|------7---------|----------------|------------9-=-|

  2.08         verse 3
|----------------|----------------|----------------|----------------|
|----------------|----------------|--------9-7-----|------7-9-7-----|
|----------------|----------------|------------9---|----9-------9-7-|
|7-----7-7-----7-|7-----7-7-----7-|7-----7-------7----7-------------|

|----------------|----------------|
|--11------9-9---|--11------9-9-=-|
|9---9---------7-|9---9-----------|
|------7---------|------7---------|

  2.21         chorus 3
|----------------|----------------|----------------|----------------|
|----------------|----------------|----------------|----------------|
|7---=-----------|----------------|7-=-------------|----------------|
|----------------|----------------|----------------|----------------|

|----------------|----------------|----------------|----------------|
|----------------|----------------|----------------|----------------|
|7---------------|--------9-------|7---------------|--------9-------|
|----------------|7---------------|----------------|7---------------|

|----------------|----------------|----------------|----------------|
|----------------|----------------|----------9-----|----9-E-H-E-=---|
|7-------7-------|--------9-------|7------/11--9---|--9E----------9-|
|----------------|7---------------|--------------7-----/------------|

  2.47       pre-outro
|----------------|----------------|----------------|----------------|
|----------------|----9-=---------|----------9-----|----9-E-13-E-9--|
|7---------------|--------.-9-9-9-|7------/11------|-/11----------11|
|--------9-7---7-|7---------------|--------------7------------------|

|----------------|----------------|----------------|----------------|
|----------9-----|----9-E-H-E-9---|--------9-------|----------------|
|7------/11--9---|-/11----------11|7---------9-----|----------------|
|--------------7------------------|----------------|7-----7-7-------|

  3.04         outro
|----------------|----------------|----------------|----------------|
|----------9-----|----9-E-H-E-9---|-------/E-9-----|----9-E-H-E-9---|
|7------/11--9---|-/11----------=-|7-----------9---|-/11----------11|
|--------------7------------------|--------------7------------------|

|----------------|----------------|----------------|----------------|
|--------9-------|----------------|----------9-----|----9-E-H-E-9---|
|7-----79--9-----|----------9-----|7-----7.E---9---|-/11----------11|
|--------------7----7-7-----------|--------------7------------------|

|----------------|----------------|----------------|----------------|
|----------9-----|----9-E-H-E-9---|--------9-------|----------------|
|7---7-7-E---9---|-/11----------11|7---7-----9-----|------------9---|
|--------------7------------------|--------------7----7---9-11------|

|----------------|----------------|----------------|----------------|
|----------9-----|----9-E-H-E-9---|--------9-------|----------------|
|7------/11--9---|-/11----------11|7---------9-----|--9---------9---|
|--------------7------------------|--------------7--------7-E-E-----|


                 basic outro riff double-scaled
|--------------------------------|--------------------------------|
|--------------------9-----------|----------9--11--13--11--9------|
|7---------------11------9-------|----9/11--------------------11--|
|----------------------------7------------------------------------|




standard tuning (EADG)

| /  slide up
| \  slide down

| .   incidental note (usually open string)
| ^   pre-struck note (hammer-on, pull-off)
| =   rest

| X   10
| E   11
| T   12
| H   13
| F   14

other punctuation
= percussion cues

horizonto time standardized
display in fixed-width font
one space ("-") = 1/16 note
n fits easily on one screen
print out in landscape mode

spaceyhippie
dudeman.net/jam
            
Tabs too difficult? Try these video lessons and learn fast.




comments powered by Disqus
↑ Back to top | Tablatures and chords are parodies/interpretations of the original songs. You may use it for private study, scholarship, research or language learning purposes only