» » »

3720 To 1 Tabs (ver.1)

Artists:  A B C D E F G H I J K L M N O P Q R S T U V W X Y Z # 

3720 To 1 Tabs (ver.1)

Roselyn
Rating:
5/5 (1 vote)
Tabs too difficult? Try these video lessons and learn fast.
                3,720 to 1 Bass Tab

Tuning: b F# b E G#

(0:08-0:15)
G#------------------------------------|
E ------------------------------------|
b ------------------------------------|   (Let 0 Ring out both times)
F#------------------------------------|
b -0---------------------------0------|

(0:15-0:29)
G#--------------------------------------------------------------------|
E --------------------------------------------------------------------|
b --------------------------------------------------------------------| (2x)
F#-5---------------------------------5--------------------------------|
b ----6--5--0--1--0---0000000--1--0-----6--5--0--1--0---0-1-0-4--3--1-|

(0:29-0:56)
G#--------------------------------------------------------------------|
E --------------------------------------------------------------------|
b --------------------------------------------------------------------| (4x)
F#------------------------------------------------------------3-5-5-6-|
b -0--0--0--0--0--0---0000000--0--0--0--0--0--0--0--0---0-0-0---------|

(0:56)
G#---|
E ---|
b ---|
F#---|
b -8-|

(1:02-1:25)
G#----------------------------------------------------------------------|
E ----------------------------------------------------------------------|
b ----------------------------------------------------------------------|(2x)
F#----------------------------------------------------------------------|
b -8(8x)--5(8x)--0(8x)--3(8x)--8(8x)--5(8x)--00000--00000--00000--00000-|

(1:25-1:30)
G#---------------------------------------|
E ---------------------------------------|
b ---------------------------------------| (Sustain all)
F#---------------------------------------|
b -00000--00000--00000--00000--0---------|

(1:31-2:04)
G#--------------------------------------|
E --------------------------------------|
b --------------------------------------|  (2x)
F#--------------------------------------|
b -0(32x)--3(32x)--8(8x)--5(8x)--0(16x)-|

(2:05-2:07)
G#--------------------------------------|
E --------------------------------------|
b --------------------------------------|
F#--------------------------------------|
b -0--0-0-0-0-0-0-0-0-0-0-0-0-0-0-------|

(2:08-2:27)
G#--------------------------------------------------|
E --------------------------------------------------|
b --------------------------------------------------|  (2x)
F#--------------------------------------------------|
b -8(8x)--5(8x)--0(8x)--3(8x)--8(8x)--5(8x)--0(16x)-|

(2:28-2:35)
G#-------------------------------------------------------------------------|
E -------------------------------------------------------------------------|
b -------------------------------------------------------------------------|
F#-------------------------------------------------------------------------|
b -0-----------0------------0------------0---0-0-0-0-0-0-0--0--0--0--0--0--|

(2:46)
G#---------|
E ---------|
b ---------| (Let Ring Out)
F#---------|
b -0-------|

(2:49-3:31)
G#-------------------------------------------------------------------------|
E -------------------------------------------------------------------------|
b -------------------------------------------------------------------------|
F#-------------------------------------------------------------------------|
b -000000000-000--------000000000-000--------5--5--5-5--5--5-88888-0--0--0-|

                                 (Play above part 4 times)
            
Tabs too difficult? Try these video lessons and learn fast.


comments powered by Disqus
↑ Back to top | Tablatures and chords are parodies/interpretations of the original songs. You may use it for private study, scholarship, research or language learning purposes only