» » »

Masilungan Tabs (ver.1)

Artists:  A B C D E F G H I J K L M N O P Q R S T U V W X Y Z # 

Masilungan Tabs (ver.1)

Sandwich
Rating:
0/5 (0 votes)
Tabs too difficult? Try these video lessons and learn fast.
                Oct 28 2005
3:20 pm


 /=slide up
 \=slide down

Verse:1
(pakinggan nyo ung slide para makuha nyo yung pattern kung paano.
pagkatapos yan nung unang chord)
(pakinggan nyo na rin kung paano yung strumming)
          Cm
e|--------4----------|----------------------------|
B|--------5----------|----------------------------|
G|--------6----------|---------77/9\7----77/9\7---|
D|--------6----------|---------55/7\5----55/7\5---|
A|--------4----------|----------------------------|
E|-------------------|----------------------------|
   "Bakit mo pinabayaan" 
   "unti unting nauubusan"
   "mga dahong nawawala"
   "hindi pa rin naniwala"

Chorus (repeat 2x)
e|---------|---------|--------7----|
B|---------|---------|--------7----|
G|----1----|---------|--------6----|
D|----2----|----4----|----7---7----|
A|----2----|----4----|----7---7----|
E|---------|----2----|----5---5----|
  "Wala na   tayong    masilungan"    

Verse 2 (same as verse 1)

  "Bakit di mo iningatan"
  "unti unting nasugatan"
  "mga sangang naputol"
  "pangakong nagkabuhol buhol"

Chorus (repeat 3x)

Bridge (Lagyan nyo ng overdrive o kaya dist. pero mababa lang ung low frequency)
e|---------4----------|-----------|
B|---------5----------|-----------|
G|---------6----------|-----1-----|
D|---------6----------|-----2-----|
A|---------4----------|-----2-----|
E|--------------------|-----------|
      "Bakit di mo     pinaglaban"
      "mga munting     ala-ala"
      "Lahat tayo'y    mababasa"

e|---------4------------|--------------------------------|
B|---------5------------|---------------4----------------|
G|---------6------------|---------------4----------------|
D|---------6------------|---------------2----------------|
A|---------4------------|--------------------------------|
E|----------------------|--------------------------------|
   "kapag ang langit ay   biglang lumuha.. biglang lumuha..

Chorus (repeat 5x)
e|---------|---------|--------7----|
B|---------|---------|--------7----|
G|----1----|---------|--------6----|
D|----2----|----4----|----7---7----|
A|----2----|----4----|----7---7----|
E|---------|----2----|----5---5----|
  "Wala na   tayong    masilungan" 
  "wala na   tayo..    wala na tayo"
  "wala na   tayo..    bakit wala na tayo"

Last Strum
      C#m
e|----4----|
B|----5----|
G|----6----|
D|----6----|
A|----4----|
E|---------|

Note:PAKINGGAN NYO UNG STRUMMING KUNG ILANG BESES PARA MABUO NYO NG MAAYOS..

Thats all... Kaya nyo yan madali lng yan.... Peace out!...

   
            
Tabs too difficult? Try these video lessons and learn fast.


comments powered by Disqus
↑ Back to top | Tablatures and chords are parodies/interpretations of the original songs. You may use it for private study, scholarship, research or language learning purposes only