» » »

Out Of Touch Tabs (ver.1)

Artists:  A B C D E F G H I J K L M N O P Q R S T U V W X Y Z # 

Out Of Touch Tabs (ver.1)

Sane Justin
Rating:
0/5 (0 votes)

Tabs too difficult? Try these video lessons and learn fast.
                                               OUT OF TOUCH - Justin Sane


M - palm mute
* - not exact # of strums...figure out the # yourself...its not hard

  INTRO  the intro is played with harmonics on the G
e|-------------------------------------------------------------------|
B|-------------------------------------------------------------------|
G|-------------------------------------------------------------------|
D|--5-5-5-5----------------------------------------------------------|
A|--5-5-5-5----------------------------------------------------------|
E|--3-3-3-3----------------------------------------------------------|

  0:01
e|---------------------------------|---------------------------------|
B|---------------------------------|---------------------------------|
G|-------M---------M-----2*----5*--|-------M---------M-----2*----5*--|
D|--5-5--5*---5-5--5*----2*----5*--|--5-5--5*---5-5--5*----2*----5*--|
A|--5-5--5*---5-5--5*----2*----3*--|--5-5--5*---5-5--5*----2*----3*--|
E|--3-3--3*---3-3--3*----0*--------|--3-3--3*---3-3--3*----0*--------|

  0:19
e|-------------------------------------------------------------------|
B|-------------------------------------------------------------------|
G|-----------------------------2*----5*------------------------------|
D|--5-5-5--5--5--5-5-5--5-5----2*----5*----3X------------------------|
A|--5-5-5--5--5--5-5-5--5-5----2*----3*------------------------------|
E|--3-3-3--0--1--3-3-3--2-2----0*------------------------------------|

  0:33
e|-------------------------------------------------------------------|
B|-------M----------M------------------------------------------------|
G|--7-7--7*----5-5--5*---------M-------------------------------------|
D|--7-7--7*----5-5--5*----5-5--5*------------------------------------|
A|--5-5--5*----3-3--3*----5-5--5*---------2-2--2-5-5-3------2X-------|
E|------------------------3-3--3*-----3-5--------------5-------------|

  0:44
e|-------------------------------------------------------------------|
B|-------M----------M----------M-------------------------------------|
G|--7-7--7*----5-5--5*----9-9--9*------------M----------M------------|
D|--7-7--7*----5-5--5*----9-9--9*----10-10--10*----9-9--9*-----------|
A|--5-5--5*----3-3--3*----7-7--7*----10-10--10*----9-9--9*-----------|
E|------------------------------------8--8---8*----7-7--7*-----------|

  0:51
e|-------------------------------------------------------------------|
B|-------------------------------------------------------------------|
G|----------M------------5-5----7-7-7-7-7-7-----------5-5----7-------|
D|--10-10--10*----5-5----5-5----7-7-7-7-7-7----5-5----5-5----7-------|
A|--10-10--10*----5-5----3-3----5-5-5-5-5-5----5-5----3-3----5-------|
E|---8--8---8*----3-3--------------------------3-3-------------------|

  0:58
e|---------------------------------|---------------------------------|
B|---------------------------------|---------------------------------|
G|-------M---------M-----2*----5*--|-------M---------M-----2*----5*--|
D|--5-5--5*---5-5--5*----2*----5*--|--5-5--5*---5-5--5*----2*----5*--|
A|--5-5--5*---5-5--5*----2*----3*--|--5-5--5*---5-5--5*----2*----3*--|
E|--3-3--3*---3-3--3*----0*--------|--3-3--3*---3-3--3*----0*--------|

  1:15
e|-------------------------------------------------------------------|
B|-------------------------------------------------------------------|
G|-----------------------------2*----5*------------------------------|
D|--5-5-5--5--5--5-5-5--5-5----2*----5*----3X------------------------|
A|--5-5-5--5--5--5-5-5--5-5----2*----3*------------------------------|
E|--3-3-3--0--1--3-3-3--2-2----0*------------------------------------|

  1:30
e|-------------------------------------------------------------------|
B|-------M----------M----------M-------------------------------------|
G|--7-7--7*----2-2--2*----7-7--7*----2-2----5-5----------------------|
D|--7-7--7*----2-2--2*----7-7--7*----2-2----5-5----2X----------------|
A|--5-5--5*----2-2--2*----5-5--5*----2-2----3-3----------------------|
E|-------------0-0--0*---------------0-0-----------------------------|

  1:41
e|-------------------------------------------------------------------|
B|-------------------------------------------------------------------|
G|--7*------------------------------------M--------------------------|
D|--7*----9*----10*----9*----7*----9*----10*----12*------------------|
A|--5*----9*----10*----9*----7*----9*----10*----12*------------------|
E|--------7*-----8*----7*----5*----7*-----8*----10*------------------|

  1:53
e|---------------------------------|---------------------------------|
B|---------------------------------|---------------------------------|
G|-------M---------M-----2*----5*--|-------M---------M-----2*----5*--|
D|--5-5--5*---5-5--5*----2*----5*--|--5-5--5*---5-5--5*----2*----5*--|
A|--5-5--5*---5-5--5*----2*----3*--|--5-5--5*---5-5--5*----2*----3*--|
E|--3-3--3*---3-3--3*----0*--------|--3-3--3*---3-3--3*----0*--------|

  2:10
e|----------------------|--------------------------------------------|
B|----------------------|--------------------------------------------|
G|------------2*----5*--|------------2*----5*------------------------|
D|--5*--5*----2*----5*--|--5*--5*----2*----5*------------------------|
A|--5*--5*----2*----3*--|--5*--5*----2*----3*------------------------|
E|--3*--2*----0*--------|--3*--2*----0*------------------------------|

This is an awsome song. On the last part... strum the chord and then pick
the individual strings. This is Justin Sane's solo project aside from Anti-Flag.
            
Tabs too difficult? Try these video lessons and learn fast.


comments powered by Disqus
↑ Back to top | Tablatures and chords are parodies/interpretations of the original songs. You may use it for private study, scholarship, research or language learning purposes only