» » »

The Only Medicine Tabs (ver.5)

Artists:  A B C D E F G H I J K L M N O P Q R S T U V W X Y Z # 

The Only Medicine Tabs (ver.5)

Scary Kids Scaring Kids
Rating:
0/5 (0 votes)

Tabs too difficult? Try these video lessons and learn fast.
                Guitar Tuning: Drop D    (e B G D A D)

Solo

e|---------------------------------------------------------------------------|
B|-14-14-14---17---------------------------------14-17-17-19-19--------------|
G|-17b17b17b-----16-14-16-16b-14-----------14-16-----------------------------|
D|-------------------------------16--14-16-----------------------------------|
A|---------------------------------------------------------------------------|
D|---------------------------------------------------------------------------|

e|-17p14-------17p14h17p14-------17p14h17p14---------------------------------|
B|-------17p14-------------17p14-------------17p14-/19-19-19-14-17-14--------|
G|--------------------------------------------------------------------16v----|
D|---------------------------------------------------------------------------|
A|---------------------------------------------------------------------------|
D|---------------------------------------------------------------------------|

e|---------------------------------------------------------------------------|
B|-------------------14----14-17-14-17-19------------------------------------|
G|-14-13-14-16-14-16----16---------------------------------------------------|
D|---------------------------------------------------------------------------|
A|---------------------------------------------------------------------------|
D|---------------------------------------------------------------------------|

e|-17-14-14-17-14-14-17/19-17-14-14-17-14-14-17-14-14-17-14-17-14-17---------|
B|---------------------------------------------------------------------------|
G|---------------------------------------------------------------------------|
D|---------------------------------------------------------------------------|
A|---------------------------------------------------------------------------|
D|---------------------------------------------------------------------------|

e|-19-16-16-19-16-16-19-16-20b-20b-20b-20b-17-14v----------------------------|
B|---------------------------------------------------------------------------|
G|---------------------------------------------------------------------------|
D|---------------------------------------------------------------------------|
A|---------------------------------------------------------------------------|
D|---------------------------------------------------------------------------|
            
Tabs too difficult? Try these video lessons and learn fast.




comments powered by Disqus
↑ Back to top | Tablatures and chords are parodies/interpretations of the original songs. You may use it for private study, scholarship, research or language learning purposes only