>
 >
Reach

Reach Bass Tabs

S Club 7 - Reach chords, tabs, tablatures, lyrics

Guitar lessons | Add/correct | Request | Top 50 tabs Artists:  A B C D E F G H I J K L M N O P Q R S T U V W X Y Z 0-9

Reach Bass Tabs – S Club 7

CD, Sheet music, Poster

Do you like Reach? Share with your friends now
Bass TabsChordsTabsUkulele
-------------------------------------------------------------------------------
                             REACH - S Club 7
-------------------------------------------------------------------------------

Tuning:  standard EADG


This is one you really just have to follow the bass piano line mostly.  And watch the 
run up to the chorus.   But actually a really nice song to play

For my daughter Natalya,  the first song she learned to sing

G|----------------------------------------------------------------------------|
D|----------------------------------------------------------------------------|
A|-----------------------------------------------5-5-5-5-5-5-5-5-5-5-5-5------|
E|-3-3-3-3-3-3-3-0-3-3-3-3-3-3-3-0-3-3-3-3-3-3-0------------------------------|

G|----------------------------------------------------------------------------|
D|----------------------------------------------------------------------------|
A|----------------------------------------------------------------------------|
E|-3-3-3-3-3-3-0-3-3-3-3-3-3-0-3-3-3-3-3-3-0--0-0-0-0-0-0-0--5-5-5-5-5-5-5-5-5|

G|----------------------------------------------------------------------------|
D|----------------------------------------------------------------------------|
A|-------------------5-5-5-5-5-5---------------------------------------------5|
E|-5-5-5-5-5-5-5-5-5--------------3-3-3-3-3-3--0-3-3-3-3-3-3-0--3-3-3-3-3-3---|

G|------------3-5-7-----------------------------------------------------------|
D|-----3-5-7------------------------------------------------------------------|
A|-5-7------------------------------------------------------------------------|
E|----------------------------------------------------------------------------|


CHORUS
G|----------------------------------------------------------------------------|
D|-5-5-5----------2-2-2------------5-5-5-------2-2-2----------5-5-5-----------|
A|--------5-5-5----------3-3-3-5---------5-5-5-------3-3-3-5--------5-5-5-----|
E|----------------------------------------------------------------------------|

G|--------------------------------------------0-0-0-0-0-0-0-0-----------------|
D|-2-2-2-3-3-3----------------------------------------------------------------|
A|-------------3-3-3-3-3-3-3-3-3-5-5-5-5-5-5----------------------------------|
E|----------------------------------------------------------------------------|

Repeat the first part and chorus again

The bridge (02:25)

G|----------------------------------------------------------------------------|
D|----------------------------------------------------------------------------|
A|-------------------------------------------------------3-3-3-3-3-3----------|
E|-3-3-3-3-3-3-0-3-3-3-3-3-3-0-3-3-3-3-3-3-0-3-3-3-3-3-3--------------5-5-5-5-|

G|----------------------------------------------------------------------------|
D|----------------------------------5-7----5--7----5-7-7----5-7-7-7-----------|
A|------------------5/7-7-7-7-7-7-7------7-------7--------7---------7-7-7-7-7-|
E|-5-5-3-3-3-3-3-3------------------------------------------------------------|

G|---------------------------------------------------------------------------|
D|---------------------------------------------------------------------------|
A|-7-7-----------------------------------------------------------------------|
E|---------------------------------------------------------------------------|

Playout to chorus - stepped up.  Repeat to fade
G|----------------------------------------------------------------------------|
D|-7-7-7---------4-4-4-----------7-7-7-------4-4-4----------7-7-7-------4-4-4-|
A|--------7-7-7---------5-5-5-7--------7-7-7-------5-5-5-7--------7-7-7-------|
E|----------------------------------------------------------------------------|

G|----------------------------------------------------------------------------|
D|-5-5-5----------------------------------------------------------------------|
A|-------5-5-5-5-5-5-5-7-7-7-7-7-7--------------------------------------------|
E|----------------------------------------------------------------------------|





Comments


Popular S Club 7 tabs & chords
Natural Chords
Never Had A Dream Come True Chords
Perfect Christmas Chords
Sunshine Chords
You Re My Number One Chords
Don't Stop Movin' Tabs
Colour Of Blue Ukulele
Dont Stop Movin Ukulele
S Club Party Ukulele
Two In A Million Ukulele


Song lyrics



↑ Back to top | Tablatures and chords are parodies/interpretations of the original songs. You may use it for private study, scholarship, research or language learning purposes only
© 2014 AZChords.com Contact us | Privacy policy | DMCA | Add/correct tabs | Request tabs | Top 50 tabs