» » »

Destin Tabs (ver.1)

Artists:  A B C D E F G H I J K L M N O P Q R S T U V W X Y Z # 

Destin Tabs (ver.1)

Scorpions
Rating:
0/5 (0 votes)

Tabs too difficult? Try these video lessons and learn fast.
                ---------------------------------------------------------------------------
---------------------------------------------------------------------------


Verse (Electroacoustic Guitar)

G#m    F#           E       F#
do you say a prayer when u ...

(repeat each one of verses)

CHORUS

B    G                A
mon destin inscrit en toi

(play it twice)

B    G         A
mon destin ....

C   G#        Bb
mon destin ...    (as you can see, you have to up half a tone the chords)


G           Eb     F
The innocent ....

Solo:

G#m  F#  E  F#  (same chords for verses)


the main "SOLO ON ELECTRIC GUITAR"  (distorted)
e|--------------------------------------------------------------------------|
B|--11--12--14--12--11------------------------------------------------------|
G|----------------------13--11--13b--13b--11\0------------------------------|
D|--------------------------------------------------------------------------|
A|--------------------------------------------------------------------------|
E|--------------------------------------------------------------------------|

e|------------------------------------14------------------------------------|
B|--11--12--14--12--11------------------------------------------------------|
G|----------------------13--11--13b-~~~~~~~~-11b----------------------------|
D|--------------------------------------------------------------------------|
A|--------------------------------------------------------------------------|
E|--------------------------------------------------------------------------|

e|-----------------14-------------------------------------------------------|
B|-------13--11--------------11-----------11--------------------------------|
G|---13b---------13-------11-----13----11-----13\0--------------------------|
D|--------------------------------------------------------------------------|
A|--------------------------------------------------------------------------|
E|--------------------------------------------------------------------------|

e|---17b~~----17b-17b--16---------------------------------------------------|
B|-----------------------16--12--11----12~~~~~~~~~~~~~~~~~~~~~--------------|
G|--------------------------------------------------------------------------|
D|--------------------------------------------------------------------------|
A|--------------------------------------------------------------------------|
E|--------------------------------------------------------------------------|


Each one chorus you have to transport a half tone up the chords for

"mon destin incrict on toi", so:

B    G         A
mon destin ....

C   G#        Bb
mon destin ...
============================================================================

(Just Practice, listen for the times on the solo.)

ENJOY !!!!!!!!!!!!!!!!! ROCK FOREVER!!!!!!!!!!!!!!!!!!!!!!!!!!!!
            
Tabs too difficult? Try these video lessons and learn fast.




comments powered by Disqus
↑ Back to top | Tablatures and chords are parodies/interpretations of the original songs. You may use it for private study, scholarship, research or language learning purposes only