» » »

Dont Throw Your Love Away Bass tabs (ver.1)

Artists:  A B C D E F G H I J K L M N O P Q R S T U V W X Y Z # 

Dont Throw Your Love Away Bass tabs (ver.1)

Searchers
Rating:
0/5 (0 votes)

Tabs too difficult? Try these video lessons and learn fast.
                Don't Throw Your Love Away
The Searchers
Written by Billy Jackson and Jimmy Wisner; released as a single with "I 
Pretend I'm With You" as the B-side.

Intro:
G|------- ------- ------- -------|------- ------- ------- -------|
D|-------------------------------|--------------------6---6---6--|
A|-------------------------------|-------------------------------|
E|-------------------------------|-------------------------------|



G|------- ------- ------- -------|------- ------- ------- -------|
D|------------------------6---6--|--------------------6---6---6--|
A|4------------------------------|4------------------------------|
E|-------------------------------|-------------------------------|



G|6------ ------- ------- -------|6------ ------- ------- ----5--|
D|------------------------6---6--|--------------------6---8------|
A|-------------------------------|-------------------------------|
E|-------------------------------|-------------------------------|


Verse:
G|6------ ----6-- ------- ----6--|------- ------- ------- ----5--|
D|----------------6--------------|8-----------8-------6---8------|
A|-------------------------------|----------------8--------------|
E|-------------------------------|-------------------------------|
          Don't   throw   your    love    a - way,    no, no, no,


G|6------ ----6-- ------- ----6--|------- ------- ------- ----6--|
D|----------------6--------------|8-----------8------------------|
A|-------------------------------|----------------8--------------|
E|-------------------------------|-------------------------------|
  no,     don't   throw   your    love    a - way,        For


G|4------ ----4-- ------- ----6--|4------ ----4-- ------- ----6--|
D|----------------4--------------|----------------4--------------|
A|-------------------------------|-------------------------------|
E|-------------------------------|-------------------------------|
  you                     might   need    it              some


G|6------ ----6-- ------- -------|6------ ----6-- ------- ----5--|
D|----------------6-----------6--|----------------6---6---8------|
A|-------------------------------|-------------------------------|
E|-------------------------------|-------------------------------|
  day.

Verse:
G|6------ ----6-- ------- ----6--|------- ------- ------- ----5--|
D|----------------6--------------|8-----------8-------6---8------|
A|-------------------------------|-------------------------------|
E|-------------------------------|-------------------------------|
          Don't   throw   your    dreams  a - way,    no, no, no,


G|6------ ----6-- ------- ----6--|------- ------- ------- ----6--|
D|----------------6--------------|8-----------8------------------|
A|-------------------------------|----------------8--------------|
E|-------------------------------|-------------------------------|
  no,     keep    them    an  -   o   -   ther day,       For


G|4------ ----4-- ------- -------|4------ ----4-- ------- ----6--|
D|----------------4-----------4--|----------------4--------------|
A|-------------------------------|-------------------------------|
E|-------------------------------|-------------------------------|
  you                     might   need    them            some


G|6------ ----6-- ------- -------|6------ ----6-- ------- -------|
D|----------------6-----------6--|----------------6--------------|
A|-------------------------------|-------------------------------|
E|-------------------------------|-------------------------------|
  day.

Bridge:
G|------- ------- ------- -------|------- ------- ------- -------|
D|8------------------------------|8-----------------------6------|
A|----------------9--------------|----------------9--------------|
E|-------------------------------|-------------------------------|
  Lovers  of  to- day        just throw   dreams away,    and
                                      their

G|------- ------- ------- -------|------- ------- ------- -------|
D|8-----------8------------------|8-----------8------------------|
A|----------------8-----------8--|----------------8--------------|
E|-------------------------------|-------------------------------|
  play       at  love.                                       They


G|------- ------- ------- -------|------- ------- ------- -------|
D|----------------9--------------|----------------9--------------|
A|9------------------------------|9------------------------------|
E|-------------------------------|-------------------------------|
  give    love a- way         to  a - ny- one     say "I      love
      their                                   who'll

G|------- ------- ------- -------|------- ------- ------- -------|
D|6------------------------------|6-----------------------6------|
A|----------------6--------------|----------------6--------------|
E|-------------------------------|-------------------------------|
  you".

Verse:
G|6------ ----6-- ------- ----6--|------- ------- ------- ----5--|
D|----------------6--------------|8-----------8-------6---8------|
A|-------------------------------|-------------------------------|
E|-------------------------------|-------------------------------|
          Don't   throw   your    love    a - way,    no, no, no,


G|6------ ----6-- ------- ----6--|------- ------- ------- ----6--|
D|----------------6--------------|8-----------8------------------|
A|-------------------------------|----------------8--------------|
E|-------------------------------|-------------------------------|
  no,     don't   throw   your    love    a - way,        For


G|4------ ----4-- ------- -------|4------ ----4-- ------- ----6--|
D|----------------4-----------4--|----------------4--------------|
A|-------------------------------|-------------------------------|
E|-------------------------------|-------------------------------|
  you                     might   need    it              some


G|6------ ----6-- ------- -------|6------ ----6-- ------- -------|
D|----------------6-----------6--|----------------6--------------|
A|-------------------------------|-------------------------------|
E|-------------------------------|-------------------------------|
  day.

Bridge:
G|------- ------- ------- -------|------- ------- ------- -------|
D|8------------------------------|8-----------------------6------|
A|----------------9--------------|----------------9--------------|
E|-------------------------------|-------------------------------|
  Lovers  of  to- day        just throw   dreams away,    and
                                      their

G|------- ------- ------- -------|------- ------- ------- -------|
D|8-----------8------------------|8-----------8------------------|
A|----------------8-----------8--|----------------8-----------8--|
E|-------------------------------|-------------------------------|
  play        at  love.                                       They


G|------- ------- ------- -------|------- ------- ------- -------|
D|----------------9--------------|----------------9--------------|
A|9------------------------------|9------------------------------|
E|-------------------------------|-------------------------------|
  give    love a- way         to  a - ny- one     say "I      love
      their                                   who'll

G|------- ------- ------- -------|------- ------- ------- -------|
D|6------------------------------|6-----------------------6---6--|
A|----------------6--------------|----------------6--------------|
E|-------------------------------|-------------------------------|
  you".

Verse:
G|6------ ----6-- ------- ----6--|------- ------- ------- ----5--|
D|----------------6--------------|8-----------8-------6---8------|
A|-------------------------------|-------------------------------|
E|-------------------------------|-------------------------------|
          Go      out,    and     have    your fun,   you'd better


G|6------ ----6-- ------- ----6--|------- ------- ------- ----6--|
D|----------------6--------------|8-----------8------------------|
A|-------------------------------|----------------8--------------|
E|-------------------------------|-------------------------------|
          have    fun     with    a   -   ny- one,        But
              your

G|4------ ----4-- ------- ----6--|4------ ----4-- ------- ----6--|
D|----------------4--------------|----------------4--------------|
A|-------------------------------|-------------------------------|
E|-------------------------------|-------------------------------|
  don't           throw   your    love                    a-


G|6------ ----6-- ------- ----6--|6------ ----6-- ------- ----5--|
D|----------------6--------------|----------------6---6---8------|
A|-------------------------------|-------------------------------|
E|-------------------------------|-------------------------------|
  way!

Verse:
G|6------ ----6-- ------- ----6--|------- ------- ------- ----5--|
D|----------------6--------------|8-----------8-------6---8------|
A|-------------------------------|-------------------------------|
E|-------------------------------|-------------------------------|
          Don't   throw   your    love    a - way,    no, no, no,


G|6------ ----6-- ------- ----6--|------- ------- ------- ----6--|
D|----------------6--------------|8-----------8------------------|
A|-------------------------------|----------------8--------------|
E|-------------------------------|-------------------------------|
  no,     don't   throw   your    love    a - way,        For


G|4------ ----4-- ------- ----6--|4------ ----4-- ------- ----6--|
D|----------------4--------------|----------------4--------------|
A|-------------------------------|-------------------------------|
E|-------------------------------|-------------------------------|
  you                     might   need    it              some


G|6------ ----6-- ------- -------|6------ ----6-- ------- ----5--|
D|----------------6-----------6--|----------------6---6---8------|
A|-------------------------------|-------------------------------|
E|-------------------------------|-------------------------------|
  day.

Outro:
G|6------ ----6-- ------- ----6--|------- ------- ------- ----5--|
D|----------------6--------------|8-----------8-------6---8------|
A|-------------------------------|-------------------------------|
E|-------------------------------|-------------------------------|
          Don't   throw   your    love    a - way,    no, no, no,


G|6------ ----6-- ------- ----6--|------- ------- ------- -------|
D|----------------6--------------|8-----------8------------------|
A|-------------------------------|----------------8--------------|
E|-------------------------------|-------------------------------|
  no,     don't   throw   your    love    a - way,    yeah.


G|6-----6 ----6-- ------- -------|------- ------- 6------ -------|
D|----------------6--------------|6----6-----6-------------------|
A|-------------------------------|-------------------------------|
E|-------------------------------|-------------------------------|


Please e-mail me for any corrections, or write a comment.
            
Tabs too difficult? Try these video lessons and learn fast.




comments powered by Disqus
↑ Back to top | Tablatures and chords are parodies/interpretations of the original songs. You may use it for private study, scholarship, research or language learning purposes only