» » »

Too Pure Tabs (ver.1)

Artists:  A B C D E F G H I J K L M N O P Q R S T U V W X Y Z # 

Too Pure Tabs (ver.1)

Sebadoh
Rating:
0/5 (0 votes)

Tabs too difficult? Try these video lessons and learn fast.
                Too Pure by Sebadoh

Guitar 1 Clean (Distortion on solo) - Standard Tuning, Capo on 1st
Guitar 2 Clean  - Standard Tuning, Capo on 1st
Guitar 3 Distorted  - Standard Tuning, Capo on 1st


Verses (Gtr 1)

"Is something missing in my touch..."

E|--------0--2--0----------2--0---2--0----------2----2----|
B|------3---------3-------------3------3--------2----2----|
G|----2-------------2----2----------------------4----2----|
D|--------------------------------------------------------|
A|--------------------------------------------------------|
E|--------------------------------------------------------|



Post Chorus/Verse 2 (Gtr 2)

E|----2--2-----------2--0--2--------2--2-----------2--2--------|
B|----3-----3--------3-------(3)----2-----2--------2----2------|
G|----2-------(2)----2--------------4-------(4)----2------(4)--|
D|-------------------------------------------------------------|
A|-------------------------------------------------------------|
E|-------------------------------------------------------------|



Riff I/Chorus (Gtr 3) 

"I'm sure I missed it by a mile.."

E|-----------------------|-----------------------|-------------------------------|
B|----2--------0----0----|----2--------0----0----|----2--------0----0----0----0--|
G|----2--------0----4----|----2--------0----4----|----2--------0----4----0----0--|
D|----2--------0----4----|----2--------0----4----|----2--------0----4----0----0--|
A|----0--------2----2----|----0--------2----2----|----0--------2----2----2----2--|
E|-------------3---------|-------------3----------|------------3---------3----3--|



Solo (Gtr 1) (Over the top of Riff 2/Outro)

E|-----------------------------------------------------------------------------------|
B|----12-12-12-12-12-12-12-12----12--10---------------10----10-----------------------|
G|---------------------------------------9----11------------------11-----------------|
D|----------------------------------------------------------------------11--9---9----|
A|-----------------------------------------------------------------------------------|
E|-----------------------------------------------------------------------------------|

E|---------------------------------------------------------------|
B|---------------------------------------------------------------|
G|---------------------------------------------------------------|
D|----9----12--11---------------------------11----11--9---9------|
A|-----------------12---9-----12---12----------------------------|
E|---------------------------------------------------------------|

E|---------------------|-----------------|----------------|-----------------|
B|---------------------|-----------------|----------------|-----------------|
G|---------------------|-----------------|----------------|-----------------|  x4
D|----9----12--11------|-----------------|---------11-----|----11--9---9----|
A|-----------------12--|----9----12------|----12----------|-----------------|
E|---------------------|-----------------|----------------|-----------------|

E|---------------------------|
B|---------------------------|
G|---------------------------|
D|----9----12--11------------|
A|----------------12----9----|
E|---------------------------|



Riff II/Outro

"I stretch until I'm sore, And then I open up for more"

E------------------------------------------------|
B--------------2-----------------------2---------|
G----4---------2----4--------4---------2----4----|
D----4----4----2----4--------4----4----2----4----|
A----2----4---------2--------2----4---------2----|
E---------2-----------------------2--------------|
            
Tabs too difficult? Try these video lessons and learn fast.




comments powered by Disqus
↑ Back to top | Tablatures and chords are parodies/interpretations of the original songs. You may use it for private study, scholarship, research or language learning purposes only