» » »

Bidi Bidi Bom Bom Tabs (ver.1)

Artists:  A B C D E F G H I J K L M N O P Q R S T U V W X Y Z # 

Bidi Bidi Bom Bom Tabs (ver.1)

Selena
Rating:
0/5 (0 votes)

Tabs too difficult? Try these video lessons and learn fast.
                This was tabbed here before, and it was horrible. So I fixed it and reposted it.
I'm 99999999% sure this is right.
Bidi Bidi Bom Bom is pretty much the best song ever. :D
 

R.I.P Selena <3
****************************************************************************
Selena - Bidi Bidi Bom Bom


E:|-------------------------------------------------------|
B:|-------------------------------------------------------|
G:|---15\10--10-10/12\10--10-10-10-10/15\10--10-10-10-----|
D:|-------------------------------------------------------|
A:|-------------------------------------------------------|
E:|-------------------------------------------------------|

E:|-------------------------------------------------------|
B:|--------------------------11~---11-13-15---15h16p15\13-|
G:|--8-7-8-7-----7-10-7-10--------------------------------|
D:|---------10--------------------------------------------|
A:|-------------------------------------------------------|
E:|-------------------------------------------------------|

E:|-------------------------------------------------------|
B:|---13-13-13-11-15-11\\\\\\\\---------------------------|
G:|-------------------------------------------------------|
D:|-------------------------------------------------------|

E:|---5/10-11p10----10-13p10--11p10--10-13p10-------------|
B:|--------------11----------------11---------------------|
G:|-------------------------------------------------------|
D:|-------------------------------------------------------|
A:|-------------------------------------------------------|

E:|---11p10--10-13p10--11p10----10------------------------|
B:|-------11-----------------11---11----11----------------|
G:|----------------------------------10---10-8-10-8p7-----|
D:|-------------------------------------------------------|
A:|-------------------------------------------------------|

E:|---------------------------8h10p8-h11p10p8-------------|
B:|------------------8h10h11------------------------------|
G:|-8h7------7h8h10---------------------------------------|
D:|------10-----------------------------------------------|
A:|-------------------------------------------------------|

E:|---10/13----13-13h15p13-13-13-13-13h18p13--------------|
B:|-------------------------------------------------------|
G:|-------------------------------------------------------|
D:|-------------------------------------------------------|

E:|---13-13-13-13h18p13-13-13-13-13h20p13-13-13-13-13-13--|
B:|-------------------------------------------------------|
G:|-------------------------------------------------------|                
E:|----13-13-13/22~~~~\\\\\\\\\\--------------------------|
B:|-------------------------------------------------------|

| /  slide up
| \  slide down
| h  hammer-on
| p  pull-off
| ~  vibrato
| +  harmonic
| x  Mute note
            
Tabs too difficult? Try these video lessons and learn fast.




comments powered by Disqus
↑ Back to top | Tablatures and chords are parodies/interpretations of the original songs. You may use it for private study, scholarship, research or language learning purposes only