» » »

Glow Bass tabs (ver.2)

Artists:  A B C D E F G H I J K L M N O P Q R S T U V W X Y Z # 

Glow Bass tabs (ver.2)

Smashing Pumpkins
Rating:
0/5 (0 votes)

Tabs too difficult? Try these video lessons and learn fast.
                G.L.O.W. - Smashing Pumpkins

Because it hasn’t been released as a single as of 8/12/08,
this is my version of the Smashing Pumpkins’ G.L.O.W. based solely on 
videos of their 8/8/08 “world premiere” 
performance at the Adler Theatre in Davenport, IA. 
Ginger plays this particular toetapper with a pick.

Intro Riff 

G|---------------|-------------|----------------|-------------|
D|4:-------------|-------------|----------------|-------------|
A|4:-------------|-------------|----------------|-------------|
D|---0-7-6-5-0-3-|-0-7-6-5-0-3-|-10-7-6-5-0-6h7-|-0-7-6-5-0-3-|

Verse 1
                                 4
G|--------------|-----------------|-------------|
D|*-------------|----------------*|-------------|
A|*-------------|----------------*|-------------|
D|--0-7-6-5-0-3-|-10-7-6-5-0-6h7--|-0-7-6-5-0-3-|

                                 2              3
G|--------------|-----------------|--------------|
D|*-------------|----------------*|-------------*|
A|*-------------|----------------*|-------------*|
D|--0-7-6-5-0-3-|-10-7-6-5-0-6h7--|-0-7-6-5-0-3--|

Guitar enters

G|----------------|-------------|-----------------|
D|----------------|-------------|-----------------|
A|----------------|-------------|-----------------|
D|-10-7-6-5-0-6h7-|-0-7-6-5-0-3-|-10-7-6-5-0-6h7--|

                          2
G|----------|--------------|
D|*---------|-------------*|
A|*---------|-------------*|
D|--8-8-8-7-|-0-7-6-5-0-3--|

Prechorus 1

          2
G|---------|----------------------|-----------------------|
D|*-------*|----------------------|-----------------------|
A|*-------*|----------------------|-----------------------|
D|-10—-10--|10--10-10-10-10-10-10-|10-10-10-10-10-10-10-10|

Chorus 1
                                 4
G|--------------|-----------------|---------|
D|*-------------|----------------*|---------|
A|*-------------|----------------*|---------|
D|--0-7-6-5-0-3-|-10-7-6-5-0-6h7--|-8-8-8-7-|

Verse 2
                    3                                          3
G|-------------------|---------|--------------|-----------------|
D|*-----------------*|---------|*-------------|----------------*|
A|*-----------------*|---------|*-------------|----------------*|
D|--0-7-6-5-0-10h12--|-8-8-8-7-|--0-7-6-5-0-3-|-10-7-6-5-0-6h7--|

                3
G|---------------|-----------------|-------------|-----------------|
D|*-------------*|-----------------|-------------|-----------------|
A|*-------------*|-----------------|-------------|-----------------|
D|--0-7-6-5-0-3--|-10-7-6-5-0-6h7--|-0-7-6-5-0-3-|-10-7-6-5-0-6h7--|

                          2         2
G|----------|--------------|---------|
D|*---------|-------------*|*-------*|
A|*---------|-------------*|*-------*|
D|--8-8-8-7-|-0-7-6-5-0-3--|-10—-10--|

Prechorus 2

          2
G|---------|----------------------|-----------------------|
D|*-------*|----------------------|-----------------------|
A|*-------*|----------------------|-----------------------|
D|-10—-10--|10--10-10-10-10-10-10-|10-10-10-10-10-10-10-10|

Chorus 2
                                 5
G|--------------|-----------------|---------|
D|*-------------|----------------*|---------|
A|*-------------|----------------*|---------|
D|--0-7-6-5-0-3-|-10-7-6-5-0-6h7--|-8-8-8-7-|

Bridge

G|----------|------------|-------|
D|*8:-------|------------|------*|
A|*4:---5---|------------|------*|
D|----0---0-|-10-4^5^4-4-|-9--8--|

Chorus 3
                    4                                2
G|---------------------|----------|-------------------|----------|
D|*4:-----------------*|----------|*-----------------*|----------|
A|*4:-----------------*|----------|*-----------------*|----------|
D|----0-7-6-5-0-10h12--|--8-8-8-7-|--0-7-6-5-0-10h12--|--8-8-8-7-|

                   8                                 2
G|------------------|---------------|-----------------|-r----|
D|*----------------*|*--------------|----------------*|--e---|
A|*----------------*|*--------------|----------------*|---s--|
D|--0-7-6-5-0-6/10--|--0-7-6-5-0-3--|-10-7-6-5-0-6h7--|----t-|

G|--------------|----------------|-----|	
D|--------------|----------------|-----|
A|--------------|----------------|-----|
D|-0-7-6-5-0-3--|-10-7-6-5-0-6h7-|-0---|



| /  slide up
| ^ bend up or down
| h  hammer-on
|**|   Repeat
            
Tabs too difficult? Try these video lessons and learn fast.




comments powered by Disqus
↑ Back to top | Tablatures and chords are parodies/interpretations of the original songs. You may use it for private study, scholarship, research or language learning purposes only