» » »

God Bass tabs (ver.1)

Artists:  A B C D E F G H I J K L M N O P Q R S T U V W X Y Z # 

God Bass tabs (ver.1)

Smashing Pumpkins
Rating:
0/5 (0 votes)

Tabs too difficult? Try these video lessons and learn fast.
                Tunning: Eb Ab Db Gb

Riff 1
Gb|--------------------------------|
Db|--------------------------------|
Ab|--------------------------------|
Eb|2-2-2-0-0-0-0-0-5-5-5-0-0-0-0-0-|

When Billy says "God is as Helpless as me caught in the
negatives" Play this little fill:

Fill1
Gb|----------|
Db|----------|
Ab|5-5-5-----|
Eb|------5-5-|

Then go back up To Riff 1
After Riff 1 is played for a bit billy goes into
"Its what you want..." When he says that play:

Riff 2
Gb|---------------|
Db|---------------|
Ab|5-5-5----------|
Eb|------5-5-0-2--|

After Riff 2 is played 2 or 3 times play this:
while he is saying "God knows im Helpless"

Riff 3
Gb|----------------|
Db|----------------|
Ab|----------------|
Eb|2-2-0-0-5-5-7-7-|

After that is played a couple of times play fill 1 then 
go to Riff 1.
Then again when he Says "God knows im Helpless" Play 
Riff 2. After Riff 2 Play Riff 3

Just before Billy Says "you Break your Back For what you Cant Have" play this:

Fill 2
Gb|------------|
Db|------------|
Ab|5-5-5-5-5-5-|
Eb|------------|

When he does say "you Break your Back For what you Cant Have" play this:

Riff 4
Gb|---------------|
Db|---------------|
Ab|--7-7-5--------|
Eb|0-------7-5-5--|

Then Go back up to Riff 3
after Riff 3 play this until the end of the song:

Riff 5
Gb|-----------------|
Db|-----------------|
Ab|-----------------|
Eb|2-1-0-0-0-0-5-7--|

This tab was made By Nathan Amber. Send Comments/Questions to this address Please: 
            
Tabs too difficult? Try these video lessons and learn fast.




comments powered by Disqus
↑ Back to top | Tablatures and chords are parodies/interpretations of the original songs. You may use it for private study, scholarship, research or language learning purposes only